Oops, an error
Loading. Please wait.

Este Es El Infierno Tab

by I.R.A.
13 views 3 this week
no commentswrite comment
1 2 3 4 5
3 more votes to show rating
add to favorites
launch autoscroll
font size
0
reset
how to read this tab
guitar tuner
×
Best way to learn
"Este Es El Infierno"
Autoscroll
slow
fast
+/-
esc
set tempo
stop
|====================|
|Este es el infierno |  tabulada por Cometin
|Por I.R.A.          |  
|Epidemia            |  CapitanFrutonita@
|====================|
ParA Mi cOnceptO Una de las Mejores Kanciones del ePiDeMiA

Ecualisaxion:
En general I.R.A. kuadra el ekualisador similar a este               w
La distorxion en 7,el treble en 8,el mid en 6,el bass en 2           w
Afinacion: EbGDAE                                                    w
Es mas recomendable tokarla en kintas                                .
                                                                     L
intro de bajo.... y                                                  a
 INTRO Y VERSOS                                                      I
     E       A       C       G                                       z
|-------------------------------------|                              k
|-------------------------------------|                              i
|--9-9-9-9---------5-5-5-5------------|                              e
|--9-9-9-9-7-7-7-7-5-5-5-5-5-5-5-5----|                              r
|--7-7-7-7-7-7-7-7-3-3-3-3-5-5-5-5----|                              d
|----------5-5-5-5---------3-3-3-3----|                              a
                                                                     .
  Se suponía que este planeta                                        t
  Era el mejor de este sistema                                       k
  Ahora me encuentro que es un infierno                              3
  Donde se viven tormento y pena                                     .
  Corrupción, inmoralidad pan de cada día                            N
  Enfermedades, calamidades y sufrimiento                            e
  Rencor y odio para variar esta pesadilla                           t
  Y la injusticia que nunca falta en este cuento

CORO?:

     E       A        C          B   C D
|-------------------------------------------|                       T
|-------------------------------------------|                       e
|--9-9-9-9---------5-5-5-5-5-5-4-4-4-5-7----|                       x
|--9-9-9-9-7-7-7-7-5-5-5-5-5-5-4-4-4-5-7----|                       t
|--7-7-7-7-7-7-7-7-3-3-3-3-3-3-2-2-2-3-5----|                       o
|----------5-5-5-5--------------------------|                       s

  Este infierno nunca va a parar                                    A
  Tengo mil razones para sospechar                                  n
  ¡¡¡ Tus ideas tienen resistencia !!!                              a
  ¡¡¡ No las cambies nunca por una apariencia !!!                   r
                                                                    k
PUENTE:                                                             i
                                                                    s
      E      A     C   C      G                                     t
|--------------------------------------|                            a
|--------------------------------------|                            s
|--9-9-9-9---------5---5---------------|
|--9-9-9-9-7-7-7-7-5---5----5-5-5-5----|                            g
|--7-7-7-7-7-7-7-7-3---3----5-5-5-5----|                            r
|----------5-5-5-5----------3-3-3-3----|x2                          a
                                                                    t
VERSO2:                                                             i
                                                                    s
   E       A       C       G                                        !
|-------------------------------------|                             !
|-------------------------------------|
|--9-9-9-9---------5-5-5-5------------|
|--9-9-9-9-7-7-7-7-5-5-5-5-5-5-5-5----|
|--7-7-7-7-7-7-7-7-3-3-3-3-5-5-5-5----|
|----------5-5-5-5---------3-3-3-3----|

  En un principio un paraíso y todo era naturaleza
  La ciencia humana con su progreso
  lo convirtió en campo de tristeza
  la impunidad de gala va a posar
  la contaminación me va a mutar
  el pánico nos tiene consumidos
  la bomba nuclear me quiere destruido.

Coro , puente y tremulo a lo loco

           Eso es todo,si la tab tiene errores o solo te apetece escribir
                   lo puedes hacer a capitanfrutonita@
                       Visite Mi site 
                                                              Cometin_
Suggest correction
Give kudos to tab author, rate the tab!
1 2 3 4 5
comments
print report bad tab
guest
You may want to rate the tab now too:
select rating
Wanna post a correction for this tab? Suggest correction