Oops, an error
Loading. Please wait.

La Nueva Esclavitud Tab

by I.R.A.
73 views 1 this week
no commentswrite comment
1 2 3 4 5
3 more votes to show rating
add to favorites
launch autoscroll
font size
0
reset
how to read this tab
guitar tuner
×
Best way to learn
"La Nueva Esclavitud"
Autoscroll
slow
fast
+/-
esc
set tempo
stop
E|------------x2--|----------------------------|
B|----------------|----------------------------|
G|-3-5/7--7-7--7--|-3--3-3--3-33-5--5-5--5-55--|
D|-3-5/7--7-7--7--|-3--3-3--3-33-5--5-5--5-55--|
A|-1-3/5--5-5--5--|-1--1-1--1-11-3--3-3--3-33--|
E|----------------|----------------------------|

E|------------x2--|-------------------|
B|----------------|-------------------|
G|-3-5/7--7-7--7--|-3--3-3--3-33-5----|
D|-3-5/7--7-7--7--|-3--3-3--3-33-5----|
A|-1-3/5--5-5--5--|-1--1-1--1-11-3----|
E|----------------|-------------------|


E|----------------------------------------|
B|-----6---6------6-------------6---------|
G|-7-7---7----7-7---7-9-9-99-9----9-7-6-9-|
D|----------------------------------------|
A|----------------------------------------|
E|----------------------------------------|

VERSO:
D5               A#5
Pasando la vida, sobreviviéndola
C5                 A5
tantas injusticias tanta pobreza
D5               A#5
dando la batalla siempre guerreándola
C5               A5
tantos esfuerzos tanta miseria
D5              A#5
día a día luchar servir sin descansar
C5
siempre al servicio
A5
la nueva esclavitud.

E|--------------------------------------------|
B|--------------------------------------------|
G|-3-333333-3-333333-5-555555-5-55555-----7---|
D|-3-333333-3-333333-5-555555-5-55555-7---7---|
A|-1-111111-1-111111-3-333333-3-33333-7---5---|
E|------------------------------------5-------|
   |-------------pm-------------|

CORO:
A#5                 C5
No tienes derecho a nada solo luchas y trabajas
A5                     D5
y no puedes descansar. La nueva esclavitud.
A#5                   C5
Nunca eres dueño de nada si en algo fallas te sacan
A5                 D5
y no puedes opinar la nueva esclavitud.
A#5                     C5
Siempre es poco lo que pagan no vives con lo que ganas
A5                     D5
no te alcanza pa pagar la nueva esclavitud


VERSO:
D5                   A5
Andas pensando en dejarlo todo
 A#5                C5
usar la fuerza o morir
D5                A5
ves a tu hijos mira sus ojos
A#5               C5
ellos dependen de ti
D5                A5
ata tus manos cargas tus hombros
A#5               C5
la condena es para ti
D5                   A5
y hasta agradeces lo que te ha dado
A#5
lo que te ha hecho
C5
la nueva esclavitud.

E|--------------------------------------------|
B|--------------------------------------------|
G|-3-333333-3-333333-5-555555-5-55555-----7---|
D|-3-333333-3-333333-5-555555-5-55555-7---7---|
A|-1-111111-1-111111-3-333333-3-33333-7---5---|
E|------------------------------------5-------|
   |-------------pm-------------|

A#5                     C5
Has de escapar tan solo cuando mueras
A5                       D5
quieres volar y te tienes que arrastrar
A#5                   C5
la pobreza te obliga a continuar
A5                     D5
tu esclavitud nunca terminara

E|-----------------------------------------------------|
B|-----------------------------------------------------|
G|-3-333333-3-333333-5-555555-5-55555----------7-7-7-7-|
D|-3-333333-3-333333-5-555555-5-55555-7-7-7-7--7-7-7-7-|
A|-1-111111-1-111111-3-333333-3-33333-7-7-7-7--5-5-5-5-|
E|------------------------------------5-5-5-5----------|
   |-------------pm-------------|

CORO:
A#5                 C5
No tienes derecho a nada solo luchas y trabajas
A5                     D5
y no puedes descansar. La nueva esclavitud.
A#5                   C5
Nunca eres dueño de nada si en algo fallas te sacan
A5                 D5
y no puedes opinar la nueva esclavitud.
A#5                     C5
Siempre es poco lo que pagan no vives con lo que ganas
A5                     D5
no te alcanza pa pagar la nueva esclavitud

Final: la nueva esclavitud(x7)
E|--------------------------------------|
B|--------------------------------------|
G|-77777777-33333333-55555555-----------|
D|-77777777-33333333-55555555-77777777--|
A|-55555555-11111111-33333333-77777777--|
E|----------------------------55555555--|

ACORDES:
E|------------------|
B|------------------| pm= palm mute
G|--3---5-------7---| / = deslizar (slide)
D|--3---5---7---7---|
A|--1---3---7---5---|
E|----------5-------|
   A#5 C5 A5  D5
Suggest correction
Give kudos to tab author, rate the tab!
1 2 3 4 5
comments
print report bad tab
guest
You may want to rate the tab now too:
select rating
Wanna post a correction for this tab? Suggest correction