Oops, an error
Loading. Please wait.

Neurona Bass

by I.R.A.
48 views 1 this week
no commentswrite comment
1 2 3 4 5
3 more votes to show rating
add to favorites
launch autoscroll
font size
0
reset
guitar tuner
×
Best way to learn
"Neurona"
Autoscroll
slow
fast
+/-
esc
set tempo
stop
INTRO:
G|------------------------------------|
D|------------------------------------| X2
A|------55-------7755-----55----------|
E|-55--5--5577--7----55--5--5577-77-5-|

VERSO 1: Me queda una neurona de tanto haber pensado...
G|-------------------------------------|
D|-------------------------------------|
A|------55---------3355-----55---------|
E|-55555--557777777----55555--55777777-|

VERSO 2: Acaso es culpa mía me queda una sola....
G|-------------------------------------|
D|-------------------------------------|
A|------55---------7755-----55---------|
E|-55555--557777777----55555--55777777-|

CORO:SIN PENSAR SIN PENSAR ? ESTE MUNDO VA A ACABAR...
G|------------------------------------------|
D|------------------------------------------|
A|-5555-7777------------5555-7777-----------|
E|-----------77775555-------------77777777--|

SIN PENSAR SIN PENSAR ? ESTE MUNDO ESTÁ PERDIDO...
G|--------------------------------------------|
D|--------------------------------------------|
A|-5555-7777-10109-9-7777--5555-7777----------|
E|-----------------------------------77777775-|

       NEURONA          NEURONA         NEURONA        NEURONA
G|------------------------------------------------------------------|
D|------------------------------------------------------------------|
A|-55555-----------55555-----------55555-----------55555------------|
E|------------77777-----------77777-----------77777-----------77777-|

INTRO:
G|------------------------------------|
D|------------------------------------| X2
A|------55-------7755-----55----------|
E|-55--5--5577--7----55--5--5577-77-5-|

VERSO 1: Me queda una neurona de tanto haber pensado...
G|-------------------------------------|
D|-------------------------------------|
A|------55---------3355-----55---------|
E|-55555--557777777----55555--55777777-|

VERSO 2: Acaso es culpa mía me queda una sola....
G|-------------------------------------|
D|-------------------------------------|
A|------55---------7755-----55---------|
E|-55555--557777777----55555--55777777-|

CORO:SIN PENSAR SIN PENSAR ? ESTE MUNDO VA A ACABAR...
G|------------------------------------------|
D|------------------------------------------|
A|-5555-7777------------5555-7777-----------|
E|-----------77775555-------------77777777--|

SIN PENSAR SIN PENSAR ? ESTE MUNDO ESTÁ PERDIDO...
G|--------------------------------------------|
D|--------------------------------------------|
A|-5555-7777-10109-9-7777--5555-7777----------|
E|-----------------------------------77777775-|

       NEURONA          NEURONA         NEURONA        NEURONA
G|------------------------------------------------------------------|
D|------------------------------------------------------------------|
A|-55555-----------55555-----------55555-----------55555------------|
E|------------77777-----------77777-----------77777-----------77777-|

CORO:SIN PENSAR SIN PENSAR ? ESTE MUNDO VA A ACABAR...
G|------------------------------------------|
D|------------------------------------------|
A|-5555-7777------------5555-7777-----------|
E|-----------77775555-------------77777777--|

SIN PENSAR SIN PENSAR ? ESTE MUNDO ESTÁ PERDIDO...
G|--------------------------------------------|
D|--------------------------------------------|
A|-5555-7777-10109-9-7777--5555-7777----------|
E|-----------------------------------77777775-|

Dudas, correcciones o comentarios al correo rockandres182@
Suggest correction
Give kudos to tab author, rate the tab!
1 2 3 4 5
comments
print report bad tab
guest
You may want to rate the tab now too:
select rating
Wanna post a correction for this tab? Suggest correction