Oops, an error
Loading. Please wait.

Neurona Chords

16 views 1 this week
no commentswrite comment
1 2 3 4 5
3 more votes to show rating
add to favorites
launch autoscroll
font size
0
reset
transpose
0
reset
simplify chords
display chords
guitar tuner
Autoscroll
slow
fast
+/-
esc
set tempo
stop
Help us to improve Ultimate-Guitar.com Take our survey!
×
ESTA VERCION APARECE EN EL DISCO DE CRONICAS DE UNA DECADA PODRIDA
Y HAY PARTES QUE DIFIEREN A LA QUE ESTA EN EL DE EPIDEMIA
Y SI ESTA MAL ESCRIBANME AL CORREO PARA CORREGIRLA Y QUE QUEDE PERFECTA

INTRO:
E|------------------------------------|
B|------------------------------------|
G|------77-------9977-----77----------|
D|-55--5777799--9997755--5777799-99-7-| X2
A|-55--5557799--9775555--5557799-99-7-|
E|-33--3--5577--7----33--3--5577-77-5-|

Gm5            D5 A5
Me queda una neurona
B5             C5  D5
de tanto haber pensado
Gm5            D5 A5
ya es cosa del pasado
B5          A5
para olvidar
Gm5           D5 A5
ha caso es culpa mia
B5           E5 D5
que sea una sola
Gm5           D5 A5
Me queda una neurona
B5
la voy a aprovechar

CORO:
C5         D5
Sin pensar sin pensar
A5         Gm5
este mundo va a acabar
C5         D5
Sin pensar sin pensar
A5
quiero gritar
C5         D5
Sin pensar sin pensar
G5   F#5   E5
este mundo esta perdido
C5         D5
Sin pensar sin pensar
A5
A A LA LA LA laaa

       NEURONA          NEURONA         NEURONA        NEURONA
E|------------------------------------------------------------------|
B|------------------------------------------------------------------|
G|-55555-----------55555-----------55555-----------55555------------|
D|-55555------7777555555------7777555555------7777555555------77775-|
A|-33333------7777533333------7777533333------7777533333------77775-|
E|------------55553-----------55553-----------55553-----------55553-|

INTRO:
E|------------------------------------|
B|------------------------------------|
G|------77-------9977-----77----------|
D|-55--5777799--9997755--5777799-99-7-|
A|-55--5557799--9775555--5557799-99-7-|
E|-33--3--5577--7----33--3--5577-77-5-|

Gm5            D5 A5
Me queda una neurona
B5             C5  D5
que es algo descuidada
Gm5            D5 A5
porque no me responde
B5         A5
para pensar
Gm5            D5 A5
ha caso es culpa mia
B5          E5 D5
que sea una sola
Gm5            D5 A5
Me queda una neurona
B5
la voy a aprovechar

CORO:
C5         D5
Sin pensar sin pensar
A5         Gm5
este mundo va a acabar
C5         D5
Sin pensar sin pensar
A5
quiero gritar
C5         D5
Sin pensar sin pensar
G5   F#5   E5
este mundo esta perdido
C5         D5
Sin pensar sin pensar
A5
A A LA LA LA laaa

      NEURONA          NEURONA         NEURONA        NEURONA
E|------------------------------------------------------------------|
B|------------------------------------------------------------------|
G|-55555-----------55555-----------55555-----------55555------------|
D|-55555------7777555555------7777555555------7777555555------77775-|
A|-33333------7777533333------7777533333------7777533333------77775-|
E|------------55553-----------55553-----------55553-----------55553-|

CORO:
C5         D5
Sin pensar sin pensar
A5         Gm5
este mundo va a acabar
C5         D5
Sin pensar sin pensar
A5
quiero gritar
C5         D5
Sin pensar sin pensar
G5   F#5   E5
este mundo esta perdido
C5         D5
Sin pensar sin pensar
A5~~
LAAAAAA

ACORDES:
E|----X----X----X----X----X----X----X----X---|
B|----X----X----X----X----X----X----X----X---|
G|----X----7----5----X----9----12---11---X---|
D|----7----7----5----9----9----12---11---5---|
A|----7----5----3----9----7----10---9----5---|
E|----5----X----X----7----X----X----X----3---|
      A5   D5   C5   B5   E5   G5  F#5  Gm5
Dudas, correcciones o comentarios al correo rockandres182@
Suggest correction
Give kudos to tab author, rate the tab!
1 2 3 4 5
comments
print report bad tab
guest
You may want to rate the tab now too:
select rating
Wanna post a correction for this tab? Suggest correction