Oops, an error
Loading. Please wait.

Neurona Tab

version 2
version 2

Whole song

17 views 1 this week
no commentswrite comment
1 2 3 4 5
3 more votes to show rating
add to favorites
launch autoscroll
font size
0
reset
how to read this tab
guitar tuner
Autoscroll
slow
fast
+/-
esc
set tempo
stop
Help us to improve Ultimate-Guitar.com Take our survey!
×
INTRO

e---------------
B---------------
G-5----7--------
D-5----7----5---
A-3----5----5---
E-----------3---
"SIN PENSAR SIN PENSAR ESTE MUNDO VA A ACABAR"

e---------------
B---------------
G-5----7--------
D-5----7----5---
A-3----5----5---
E-----------3---
"SIN PENSAR SIN PENSAR QUIERO GRITAR"

e-------------------
B-------------------
G-5-----7-----------
D-5-----7----5-4-2--
A-3-----5----5-4-2--
E------------3-2-0--
"SIN PENSAR SIN PENSAR ESTE MUNDO ESTA PERDIDO"

e------------------
B------------------
G--5---7-----------
D--5---7---55555---
A--3---5---55555---
E----------33333---
"SIN PENSAR SIN PENSAR LA LA LA LA LA HEY"

PUENTE

e--------------------
B--------------------
G------------------------------------
D------77---------99-77------77------      X 1
A-55-5-55-77-99-9-77-55-55-5-55-77-99-9-77-
E-33-3----55-77-7-------33-3----55-77-7-55-


verse 1

e--------------------
B--------------------
G------------------------------------
D------77---------99-77------77------      X 2
A-55-5-55-77-99-9-77-55-55-5-55-77-99-9-77-
E-33-3----55-77-7-------33-3----55-77-7-55-

"ME QUEDA UNA NEURONA DE TANTO HABER PENSADO
ES COSA DEL PASADO PARA OLVIDAR
Y YA NO ES CULPA MIA QUE SEA UNA SOLA
ME QUEDA UNA NEURONA
LA VOY A APROBECHAR"

CORO

e---------------
B---------------
G-5----7--------
D-5-X5-7-X5-5---
A-3----5----5-X10-
E-----------3---
"SIN PENSAR SIN PENSAR ESTE MUNDO VA A ACABAR"

e---------------
B---------------
G-5----7--------
D-5-X5-7-X5-5---
A-3----5----5X10-
E-----------3---
"SIN PENSAR SIN PENSAR QUIERO GRITAR"

e-------------------
B-------------------
G-5-----7-----------
D-5-X5--7-X5-5----4----2--
A-3-----5----5-X2-4-X2-2-X4-
E------------3----2----0--
"SIN PENSAR SIN PENSAR ESTE MUNDO ESTA PERDIDO"

e-----------------
B-----------------
G--5----7---------
D--5-X5-7-X5--5---
A--3----5-----5-X5-
E-------------3---
"SIN PENSAR SIN PENSAR LA LA LA LA LA HEY"


PUENTE

e--------------------
B--------------------
G------------------------------------
D------77---------99-77------77------      X 1
A-55-5-55-77-99-9-77-55-55-5-55-77-99-9-77-
E-33-3----55-77-7-------33-3----55-77-7-55-


VERSE 2
e--------------------
B--------------------
G------------------------------------
D------77---------99-77------77------      X 2
A-55-5-55-77-99-9-77-55-55-5-55-77-99-9-77-
E-33-3----55-77-7-------33-3----55-77-7-55-

"ME QUEDA UNA NEURONA
ES ALGO DESCUIDADA PORQUE NO ME RESPONDE
PARA PENSAR Y YA NO ES CULPA MIA
QUE SEA UNA SOLA
ME QUEDA UNA NEURONA
LA VOY A APROBECHAR"


CORO

e---------------
B---------------
G-5----7--------
D-5-X5-7-X5-5---
A-3----5----5-X10-
E-----------3---
"SIN PENSAR SIN PENSAR ESTE MUNDO VA A ACABAR"

e---------------
B---------------
G-5----7--------
D-5-X5-7-X5-5---
A-3----5----5X10-
E-----------3---
"SIN PENSAR SIN PENSAR QUIERO GRITAR"

e-------------------
B-------------------
G-5-----7-----------
D-5-X5--7-X5-5----4----2--
A-3-----5----5-X2-4-X2-2-X4-
E------------3----2----0--
"SIN PENSAR SIN PENSAR ESTE MUNDO ESTA PERDIDO"

e-----------------
B-----------------
G--5----7---------
D--5-X5-7-X5--5---
A--3----5-----5-X5-
E-------------3---
"SIN PENSAR SIN PENSAR LA LA LA LA LA HEY"
Suggest correction
Give kudos to tab author, rate the tab!
1 2 3 4 5
comments
print report bad tab
guest
You may want to rate the tab now too:
select rating
Wanna post a correction for this tab? Suggest correction