Oops, an error
Loading. Please wait.

Punk 90 Bass

by I.R.A.
31 views 1 this week
no commentswrite comment
1 2 3 4 5
3 more votes to show rating
add to favorites
launch autoscroll
font size
0
reset
guitar tuner
Autoscroll
slow
fast
+/-
esc
set tempo
stop
INTRO: (ESTO VA DESPUES DE IN INTRO KE HACE LA GUITARRA SOLO)
G|--------------------|
D|--------------------|
A|-55555555-3333-5----| X2
E|-----------------55-|

VERSO: Como de costumbre te sientes ignorado...
G|---------------------------------------|
D|---------------------------------------|
A|-55555555-3333-5----55555555-3333-5----| X2
E|-----------------55-----------------55-|

CORO: Disturbios, de noche me quiero intoxicar...
G|---------------------------------------|
D|---------------------------------------|
A|------5555-77777777-9999-5555-97777777-| X4
E|-5555----------------------------------|

INTERMEDIO:
G|-----------------------------|
D|-----------------------------|
A|-----------------------------|
E|-4/5555--4/5555--4/5555--4-5-|

VERSO: Que pena me dan sin vergüenza ya he quedado...
G|---------------------------------------|
D|---------------------------------------|
A|-55555555-3333-5----55555555-3333-5----| X2
E|-----------------55-----------------55-|

CORO: Disturbios, de noche me quiero intoxicar...
G|---------------------------------------|
D|---------------------------------------|
A|------5555-77777777-9999-5555-97777777-| X4
E|-5555----------------------------------|

Caminando un poco aturdido
G|---------------------------------------|
D|---------------------------------------|
A|------5555-77777777-9999-5555-97777777-| X2
E|-5555----------------------------------|

CORO: Disturbios, de noche me quiero intoxicar...
G|---------------------------------------|
D|---------------------------------------|
A|------5555-77777777-9999-5555-97777777-| X4
E|-5555----------------------------------|

FINAL:
G|------------|
D|------------|
A|------------|
E|-5----------|
Suggest correction
Give kudos to tab author, rate the tab!
1 2 3 4 5
comments
print report bad tab
guest
Wanna post a correction for this tab? Suggest correction