Oops, an error
Loading. Please wait.

Sinmonopolios Bass

by I.R.A.
11 views 1 this week
no commentswrite comment
1 2 3 4 5
3 more votes to show rating
add to favorites
launch autoscroll
font size
0
reset
guitar tuner
×
Best way to learn
"Sinmonopolios"
Autoscroll
slow
fast
+/-
esc
set tempo
stop
INTRO

G|------------------------------------|
D|------------------------------------| X4
A|-1-1-1-1----------------------------|
E|---------3-3-3-3--5-5-5-5--1-1-1-1--|

Sin monopolios

G|------------------------------------|
D|------------------------------------|
A|-1-1-1-1----------------------------|
E|---------3-3-3-3--5-5-5-5--1-1-1-1--|

No hay dueños únicos

G|------------------------------------|
D|------------------------------------|
A|-1-1-1-1----------------------------|
E|---------3-3-3-3--5-5-5-5--1-1-1-1--|

De los sueños Ni de la realidad

G|------------------------------------|
D|------------------------------------|
A|-1-1-1-1----------------------------|
E|---------3-3-3-3--5-5-5-5--1-1-1-1--|

De tu vida ni de la mortalidad

G|------------------------------------|
D|------------------------------------|
A|-1-1-1-1----------------------------|
E|---------3-3-3-3--5-5-5-5--1-1-1-1--|

sin monopolios

G|------------------------------------|
D|------------------------------------|
A|-1-1-1-1----------------------------|
E|---------3-3-3-3--5-5-5-5--1-1-1-1--|

i asi va toda la kancion spero ke les guste...
Suggest correction
Give kudos to tab author, rate the tab!
1 2 3 4 5
comments
print report bad tab
guest
You may want to rate the tab now too:
select rating
Wanna post a correction for this tab? Suggest correction