Oops, an error
Loading. Please wait.

Crystal Ball tab

364 views 9 this week
1 commentread comment
1 2 3 4 5
x 3
add to favorites
×
Save as Personal and add changes to this tab that will be seen only by you. Learn more ›
×
You can save this tab as Personal to edit and correct it or add notes. All changes will be seen only by you. Learn more »
launch autoscroll
font size
0
reset
how to read this tab
guitar tuner
edit
Autoscroll
slow
fast
+/-
esc
set tempo
stop
-------------------------------------------------------------------------------
                         Crystal Ball - I See Stars
-------------------------------------------------------------------------------
Tabbed by: 14omnipotent
E-mail: pls dont contact me :) 

I couldn't find a tab for this song anywhere, so I figured it out myself. 
It's not 100%, suggestions are appreciated.

Tuning: Drop C

* intro *

e|---------------------------------------------------------|
B|---------------------------------------------------------|
G|---------------------------------------------------------|
D|---------------------------------------------------------|
A|--0-0000000--0-0-0-0-0-0--00-0---------------0----5-8----| x2
E|--0-0000000--1-1-1-1-1-1--00-0--0-0-0-0-0-0--1-\------8--|
    . .......  . . . . . .  .. .               .

^ use the whammy bar to achieve that downtune effect

* chorus *

e|------|
B|------|
G|------|
D|--0~--| fades in
A|--0~--|
E|--0~--|

e|------------------------------------|
B|------------------------------------|
G|------------------------------------|
D|------------------------------------|
A|--00000000-88888888-55555555--------|
E|--00000000-88888888-55555555-0-3-8--|

e|------------------------------------|
B|------------------------------------|
G|------------------------------------|
D|------------------------------------|
A|--00000000-88888888-55555555-8------|
E|--00000000-88888888-55555555---0-8--|

* breakdown *

e|------------------------------------------------------|
B|------------------------------------------------------|
G|------------------------------------------------------|
D|------------------------------------------------------| 
A|-000--0-00-0000--00-0-000000--0-00-0000---------------| x2
E|-000--0-00-0000--00-0-000000--0-00-0000--000-0-00-00--|
   ...  . .. ....  .. . ......  . .. ....  ...   .  .

* * * dont play anything cuz groovy techno interlude * * *

* breakdown #2 *

e|---------------------------------------------------------|
B|---------------------------------------------------------|
G|---------------------------------------------------------|
D|---------------------------------------------------------|
A|--0-0000000--0-0-0-0-0-0--00-0---------------0----5-8----| x2
E|--0-0000000--1-1-1-1-1-1--00-0--0-0-0-0-0-0--1-\------8--|
    . .......  . . . . . .  .. .               .

* breakdown #3 *

e|---------------------------------|
B|---------------------------------|
G|---------------------------------|
D|---------------------------------|
A|-----------------------------0~--| x4 
E|--000-0-0--000-0-0--000-0-0--1~--|
    ...      ...      ...      .

^ the 3rd time around playing that, don't play the 10~ part

* solo *

Okay, so I haven't really figured it all out yet because some of the notes are kinda hard to hear but here's 
what I got, build off of it if you want.

e|-----------------------------------------|
B|--18~----17~-15~--18~----17~--15p14h15~--|
G|------14--------------14-----------------|
D|-----------------------------------------|
A|-----------------------------------------| x2
E|-----------------------------------------|

* outro *

Alright, this part has a very weird pattern, and it's hard to hear exactly what the guitarist is playing in 
the track :/ This is what I've made of it, feel free to experiment!

e|-----------------------------------------------------|
B|-----------------------------------------------------|
G|-----------------------------------------------------|
D|-----------------------------------------------------|
A|--00000--0-0-000-0-0-0000-000--0-00-0000-0-----------|
E|--00000--0-0-000-0-0-0000-000--0-00-0000-0-0-0-0000--|
    .....  . . ... . . .... ...  . .. .... .   . ....

e|------------------------------------------------------|
B|------------------------------------------------------|
G|------------------------------------------------------|
D|------------------------------------------------------|
A|--00000--0-0-000-0-0-0000-000--0-00-0000-0------------|
E|--00000--0-0-000-0-0-0000-000--0-00-0000-0-0-0-0-0-0--|
    .....  . . ... . . .... ...  . .. .... .   .   .

THE END
Suggest correction
Creating personal tab
Creating personal tab
You can edit any tab online and save it as your Personal.

You can edit, replace or remove any tab part or add personal notes – all changes will be seen only by you.

Personal tabs can be accessed anytime from any device, even offline.
Learn more »
Give kudos to tab author, rate the tab!
1 2 3 4 5
comments
print report bad tab
1 comment total.
0 reply
bagnoswit 73 Sep 14, 2016 07:32 AM

Perfect tab, but i think that solo looks like this

e|--------------------------------------------|
B|--18~----17~-15~--18~----17---14--14--14p15-|
G|------14--------------14----14--14--14------|
D|--------------------------------------------|
A|--------------------------------------------| x2
E|--------------------------------------------|

guest
You may want to rate the tab now too:
select rating
Wanna post a correction for this tab? Suggest correction