Oops, an error
Loading. Please wait.

New Demons bass

322 views 3 this week
no commentswrite comment
1 2 3 4 5
3 more votes to show rating
add to favorites
×
Save as Personal and add changes to this tab that will be seen only by you. Learn more ›
×
You can save this tab as Personal to edit and correct it or add notes. All changes will be seen only by you. Learn more »
launch autoscroll
font size
0
reset
guitar tuner
edit
Autoscroll
slow
fast
+/-
esc
set tempo
stop
I See Stars - New Demons

Tabbed by: Ash (XxThreeCheersxX)
email: burdickash@gmail.com

I tried my best to tab out the breakdowns, without making it impossible to read with some semblance of rhythm
... I tabbed this out on my five string and then transposed it to Drop C because it's the easiest tuning to 
play it in, if there are any errors please let me know, happy playing!

"I'm not your true love or your knight in shining armor..."
F|---------------------------------|
C|---------1-----------------------|
G|---------------------------------| 
C|-0-000-0----0-10--000000--000000-|
                                           x 2 (That's a 1 and a 0, not a 10)
F|---------------------------------|
C|---------1-----------------------|
G|---------------------------------| 
C|-0-000-0----0-10--000000--0000x--|

"Well I'm not alone tonight..."
F|-----------------------------------------------------------------------|
C|-----------------------------------------------------------------------|
G|-----------------------------------------------------------------------| (those are 1's, not 11's)
C|-0--000--0--0--0~----0000----0----00----0--000--0--0--0~----11--1111x--|

"Our love was a waste, that much is true..."
F|---------------------------------|
C|---------1-----------------------|
G|---------------------------------| 
C|-0-000-0----0-10--000000--000000-|
                                           
F|---------------------------------|
C|---------1-----------------------|
G|---------------------------------| 
C|-0-000-0----0-10--000000--0000x--|

(New Guitar Riff)
F|------------------------------------------------|
C|------------------------------------------------|
G|------------------------------------------------|
C|-0~------------------------0x-------------------|

"Fuck you!"
F|-----------------------------------------------------------|
C|-----------------------------------------------------------|
G|---------------------------------4-4-4-4--4-4-4-5--4--1100-| x 2
C|-0-0-0-0-0-0-0-0-0-0-0-0-0-0-0-0---------------------------| 

"You're not better than anyone, if you want respect you have to earn it..."
F|--------------------------|
C|--------------------------|
G|--------------------------| x 4
C|-0-0-0-0-0----0-0-0-0-0-0-|

Pre-Chorus
F|------------------------------------------------------------------------|
C|------------------------------------------------------------------------|
G|-1~--------3~--------5~----------------1~------------------3~-----------|
C|-------------------------------------------------0~---------------------|

Chorus
F|-----------------------------------------------------------------|
C|-----------------------------------------------------------------|
G|-1-1-1-1-1-1-1-1-3-3-3-3-3-3-3-3---------------------------------| x 3
C|---------------------------------0-0-0-0-0-0-0-0-0-0-0-0-0-0-0-0-|

F|---------------------------------------------------------------------|
C|---------------------------------------------------------------------|
G|-1-1-1-1-1-1-1-1-3-3-3-3-3-3-3-3-------------------------------------|
C|---------------------------------0-0----0-0-0----0-0-0----0-0-0-0-0--|

"Knock me down to pick yourself up..."
F|-------------------------------------------------------------|
C|-------------------------------------------------------------|
G|-------------------------------------------------------------| x 2
C|-0--12\--0-0-0-0-000-000-000-000--0--5\--0-0-0-0-00000000----|

"I bet you'd put yourself through hell..."
F|----------------------------------|
C|----------------------------------|
G|----------------------------------| x 2
C|-0--12\--0-0-0-0-000-000-000-000--|

F|----------------------------------|
C|----------------------------------|
G|----------------------------------| x 2
C|-0--10\--0-0-0-0-000-000-000-000--|

F|---------------------------------|
C|---------------------------------|
G|---------------------------------| x 2
C|-0--8\--0-0-0-0-000-000-000-000--|

F|----------------------------------|
C|----------------------------------|
G|----------------------------------| x 2
C|-0--12\--0-0-0-0-000-000-000-000--|

"Knock me down to pick yourself up..."
F|-------------------------------------------------------------|
C|-------------------------------------------------------------|
G|-------------------------------------------------------------| x 2
C|-0--12\--0-0-0-0-000-000-000-000--0--5\--0-0-0-0-00000000----|

Chorus
F|-----------------------------------------------------------------|
C|-----------------------------------------------------------------|
G|-1-1-1-1-1-1-1-1-3-3-3-3-3-3-3-3---------------------------------| x 3
C|---------------------------------0-0-0-0-0-0-0-0-0-0-0-0-0-0-0-0-|

F|---------------------------------------------------------------------|
C|---------------------------------------------------------------------|
G|-1-1-1-1-1-1-1-1-3-3-3-3-3-3-3-3-------------------------------------|
C|---------------------------------0-0----0-0-0----0-0-0----0-0-0-0-0--|

-break-

"These new demons are eating me alive"
F|---------------------------------------------------------------------|
C|---------------------------------------------------------------------|
G|---------------------------------------------------------------------|
C|-0~--------------------------------3~--------------------------------|

F|--------------------------------------------|
C|--------------------------------------------|
G|-1~-----------------------------------------|
C|-----------------------------------0--0--0--|

F|---------------------------------------------------------------------|
C|---------------------------------------------------------------------|
G|---------------------------------------------------------------------|
C|-0~--------------------------------3~--------------------------------|

F|---------------------------------------------------------------------|
C|---------------------------------------------------------------------|
G|-1~------------------------------------------------------------------|
C|-----------------------------------0~--------------------------------|

***********************************

| x   Dead note
| g   Grace note
| (n) Ghost note
| h   Hammer-on
| p   Pull-off
| r   Release
| >   Accented note
| t   Tapping
| b   Bend
| br  Bend release
| pb  Pre-bend
| pbr Pre-bend release
| /   Slide up
| \   Slide down
| ~   Vibrato
| s   Slap
| P   Pop
| PM  Palm mute
| TR  Trill
| N   Tremolo

************************************

            
            
Suggest correction
Creating personal tab
Creating personal tab
You can edit any tab online and save it as your Personal.

You can edit, replace or remove any tab part or add personal notes – all changes will be seen only by you.

Personal tabs can be accessed anytime from any device, even offline.
Learn more »
Give kudos to tab author, rate the tab!
1 2 3 4 5
comments
print report bad tab
guest
You may want to rate the tab now too:
select rating
Wanna post a correction for this tab? Suggest correction