Oops, an error
Loading. Please wait.

Project Wakeup tab

version 3
version 3

Whole song

Interactive

367 views 3 this week
no commentswrite comment
1 2 3 4 5
3 more votes to show rating
add to favorites
×
Save as Personal and add changes to this tab that will be seen only by you. Learn more ›
×
You can save this tab as Personal to edit and correct it or add notes. All changes will be seen only by you. Learn more »
launch autoscroll
font size
0
reset
how to read this tab
guitar tuner
edit
Autoscroll
slow
fast
+/-
esc
set tempo
stop
I See Stars
Project Wakeup
3-D
Drop d

i know it's not completely correct, but i've done what i can. this is how i play this song:

Verse 1:

 |Gtr1
e|-7h10-12-7---7-7-7-7-7-7-7-7-7-7-7h10-12-|
b|-----------------------------------------|
g|-----------------------------------------|
d|-----------------------------------------|
a|-----------------------------------------|
d|-----------------------------------------|
 |
 |Gtr2
e|-----------------------------------------|
b|-----------------------------------------|
g|-----------------------------------------|
d|---------2---2-2-2-2-2-2-2-2-2-2-5-5-5---|
a|---------2---2-2-2-2-2-2-2-2-2-2-5-5-5---|
d|---------2---2-2-2-2-2-2-2-2-2-2-5-5-5---|


e|------------------------------------------------|
b|-10---10-10-10-10-10-10-10-10-10-10-10-10-10-10-|
g|------------------------------------------------|
d|------------------------------------------------|
a|------------------------------------------------|
d|------------------------------------------------|
 |
e|---------------------------------|
b|---------------------------------|
g|---------------------------------|
d|-0---0-0-0-0-0-0-0-0-0-0-0-5-5-5-|
a|-0---0-0-0-0-0-0-0-0-0-0-0-5-5-5-|
d|-0---0-0-0-0-0-0-0-0-0-0-0-5-5-5-|

e|-7---7-7-7-7-7-7-7-7-7-7-7h10-12-|
b|---------------------------------|
g|---------------------------------|
d|---------------------------------|
a|---------------------------------|
d|---------------------------------|
 |
e|---------------------------------|
b|---------------------------------|
g|---------------------------------|
d|-2---2-2-2-2-2-2-2-2-2-2-5-5-5---|
a|-2---2-2-2-2-2-2-2-2-2-2-5-5-5---|
d|-2---2-2-2-2-2-2-2-2-2-2-5-5-5---|

e|---------------------------------------7h10-12-|
b|-10---10-10-10-10-10-10-10-10-10-10-10---------|
g|-----------------------------------------------|
d|-----------------------------------------------|
a|-----------------------------------------------|
d|-----------------------------------------------|
 |
e|---------------------------------|
b|---------------------------------|
g|---------------------------------|
d|-0---0-0-0-0-0-0-0-0-0-0-0-5-5-5-|
a|-0---0-0-0-0-0-0-0-0-0-0-0-5-5-5-|
d|-0---0-0-0-0-0-0-0-0-0-0-0-5-5-5-|


e|-7---7-7-7-7-7-7-7-7-7-7-7h10-12-|
b|---------------------------------|
g|---------------------------------|
d|---------------------------------|
a|---------------------------------|
d|---------------------------------|
 |
e|-------------------------------|
b|-------------------------------|
g|-------------------------------|
d|-2---2-2-2-2-2-2---------5-5-5-|
a|-2---2-2-2-2-2-2---------5-5-5-|
d|-2---2-2-2-2-2-2---------5-5-5-|


e|-----------------------------------------------|
b|-10---10-10-10-10-10-10-10-10-10-10-10---------|
g|---------------------------------------9-9-9---|
d|-----------------------------------------------|
a|-----------------------------------------------|
d|-----------------------------------------------|
 |
e|-------------|
b|-------------|
g|-------------|
d|-0~--000-000-|
a|-0~--000-000-|
d|-0~--000-000-|

e|------------------------------------------------------|
b|-5-----5---5---5---5---5---5-5-5-5-----5---5---5---5~-|
g|-4-----4---4---4---4---4---4-4-4-2-----4---4---4---4~-|
d|------------------------------------------------------|
a|------------------------------------------------------|
d|------------------------------------------------------|
 |
e|------------------------------------------------------|
b|------------------------------------------------------|
g|------------------------------------------------------|
d|-2~----2---2---2---2---2---5-5-5-0~----2---2---2---2~-|
a|-2~----2---2---2---2---2---5-5-5-0~----2---2---2---2~-|
d|-2~----2---2---2---2---2---5-5-5-0~----2---2---2---2~-|

Chorus:

both Gtrs

e|-0-0-0-0-0-0-0-0-0-0-0-0-0-0-10-0-|
b|-5-5-5-7-7-7-8-8-8-7-7-7-7-7----7-|
g|----------------------------------| x3
d|----------------------------------|
a|----------------------------------|
d|----------------------------------|

e|-0-0-0-0-0-0-0-0-0-0--0--0--0--0--0--0—-0--0----0--0----0-0-|
b|-5-5-5-7-7-7-8-8-8-10-10-10-10-10-10-10-12-12---10-10---8-8-|
g|----------------------------------------12-12---11-11---9-9-|
d|------------------------------------------------------------|
a|------------------------------------------------------------|
d|------------------------------------------------------------|

Verse 2:
 |Gtr 1
e|-------2h3p2p0-----0~--2h3p2p0---------0h2h3p2p0-------0h2h3p2p0------|
b|-3h5~----------3p0-------------3p0h1h3-----------3p1h3-----------3h5~-|
g|----------------------------------------------------------------------|
d|----------------------------------------------------------------------|
a|----------------------------------------------------------------------|
d|----------------------------------------------------------------------|
 |Gtr 2
e|-12-12-12-7-7-7-10~-------------------------------------------------|
b|--------------------------------------------------------------------|
g|--------------------------------------------------------------------|
d|--------------------------------------------------------------------|
a|--------------------------------------------------------------------|
d|--------------------------------------------------------------------|

e|-2h3p2p0-----0~--2h3p2p0---------0h2h3p2p0-------0h2h3~-|
b|---------3p0-------------3p0h1h3-----------3p1h3--------|
g|--------------------------------------------------------|
d|--------------------------------------------------------|
a|--------------------------------------------------------|
d|--------------------------------------------------------|
 |
e|-12-12-12-7-7-7-10~-----15-15-14-14-10~-----------------------------|
b|--------------------------------------------------------------------|
g|--------------------------------------------------------------------|
d|--------------------------------------------------------------------|
a|--------------------------------------------------------------------|
d|--------------------------------------------------------------------|

e|---0-2-3---0-2-3-------------------------------------------------|
b|-------------------3-5-7---3-5-7---1-3-5---1-3-5---3-5-7---3-5-7-|
g|-----------------------------------------------------------------|
d|-----------------------------------------------------------------|
a|-----------------------------------------------------------------|
d|-----------------------------------------------------------------|
 |
e|-12-12-12-7-7-7-10~-------------------------------------------------|
b|--------------------------------------------------------------------|
g|--------------------------------------------------------------------|
d|--------------------------------------------------------------------|
a|--------------------------------------------------------------------|
d|--------------------------------------------------------------------|

e|---0-2-3---0-2-3--------------------------------------------|
b|-------------------3-5-7---3-5-7---1-3-5---1-3-5---3-5-7-8~-|
g|------------------------------------------------------------|
d|------------------------------------------------------------|
a|------------------------------------------------------------|
d|------------------------------------------------------------|
 |
e|-12-12-12-7-7-7-10~-----15-15-14-14-10~-----------------------------|
b|--------------------------------------------------------------------|
g|--------------------------------------------------------------------|
d|--------------------------------------------------------------------|
a|--------------------------------------------------------------------|
d|--------------------------------------------------------------------|


e|-----------------15-15-14----14-----------------|
b|--------------------------15----15-12-12-15~----|
g|------------------------------------------------|
d|------------------------------------------------|
a|------------------------------------------------|
d|------------------------------------------------|
 |
e|---------------------------------------------------|
b|---------------------------------------------------|
g|---------------------------------------------------|
d|-2~--------------4~-------5~------0~---------------|
a|-2~--------------4~-------5~------0~---------------|
d|-2~--------------4~-------5~------0~---------------|

`
e|-15-15-14----14--------------------15-15-14----14-15-17~-|
b|----------15----15-12-12--------------------15-----------|
g|-------------------------15~-----------------------------|
d|---------------------------------------------------------|
a|---------------------------------------------------------|
d|---------------------------------------------------------|
 |
e|------------------------------------------------------------------|
b|------------------------------------------------------------------|
g|------------------------------------------------------------------|
d|-5~------4~------2~--------------4~------5~------0~---------------|
a|-5~------4~-------------------------------------------------------|
d|-5~------4~-------------------------------------------------------|

e|---19~--20~--22~/---|
b|--------------------|
g|--------------------|
d|--------------------|
a|--------------------|
d|--------------------|
 |
e|-------------------|
b|-------------------|
g|-------------------|
d|-5~------4~------2-|
a|-------------------|
d|-------------------|

riff 1:

 |Gtr 1
e|-12p0-7p0-5p0-2h3h5p0-3p0-2h3p2p0-|
b|----------------------------------|
g|----------------------------------|
d|----------------------------------|
a|----------------------------------|
d|----------------------------------|
 |
 |Gtr 3
e|-12p0-14p0-15p0-14h15p14p0-15p0-17p0-19p0-|
b|------------------------------------------|
g|------------------------------------------|
d|------------------------------------------|
a|------------------------------------------|
d|------------------------------------------|

e|-12p0-7p0-5p0-2h3h5p0-3p0---------|
b|--------------------------8h10p8~-|
g|----------------------------------|
d|----------------------------------|
a|----------------------------------|
d|----------------------------------|
 |
e|-12p0-14p0-15p0-14h15p14p0-15p0-17p0-19p0-|
b|------------------------------------------|
g|------------------------------------------|
d|------------------------------------------|
a|------------------------------------------|
d|------------------------------------------|

riff 2:

 |Gtr 1
e|-12p0-10p0-8p0-8h10p8p0-7p0-7h8p7p0-|
b|------------------------------------|
g|------------------------------------|
d|------------------------------------|
a|------------------------------------|
d|------------------------------------|
 |
 |Gtr 3
e|-12p0-14p0-15p0-14h15p14p0-15p0-17p0-19p0-|
b|------------------------------------------|
g|------------------------------------------|
d|------------------------------------------|
a|------------------------------------------|
d|------------------------------------------|
 |
 |Gtr 2
e|-------------------------------|
b|-------------------------------|
g|-------------------------------|
d|-222---222---222---222---44445-|
a|-222---222---222---222---44445-|
d|-222---222---222---222---44445-|

e|-12p0-10p0-8p0-8h10p8p0-7p0-7h8p7p0-|
b|------------------------------------|
g|------------------------------------|
d|------------------------------------|
a|------------------------------------|
d|------------------------------------|
 |
e|-12p0-14p0-15p0-14h15p14p0-15p0-17p0-19p0-|
b|------------------------------------------|
g|------------------------------------------|
d|------------------------------------------|
a|------------------------------------------|
d|------------------------------------------|
 |
e|-------------------------------|
b|-------------------------------|
g|-------------------------------| x2
d|-000---000---000---555---44444-|
a|-000---000---000---555---44444-|
d|-000---000---000---555---44444-|

riff 3:

 |Gtr 1
e|-12---14---15---14h15-14h15h17---15h17h19-|
b|------------------------------------------|
g|------------------------------------------|
d|------------------------------------------|
a|------------------------------------------|
d|------------------------------------------|
 |
 |Gtr 2
e|------------------------|
g|------------------------|
d|-2~--------------4~--5~-|
a|-2~--------------4~--5~-|
d|-2~--------------4~--5~-|

e|-12---14---15---14h15-14h15h17---15h17h19-|
b|------------------------------------------|
g|------------------------------------------|
d|------------------------------------------|
a|------------------------------------------|
d|------------------------------------------|
 |
e|-------------------------|
b|-------------------------|
g|-------------------------|
d|-0~--------------5~--4~--|
a|-0~--------------5~--4~--|
d|-0~--------------5~--4~--|

e|-12---14---15---14h15-14h15h17---15h17h19-|
b|------------------------------------------|
g|------------------------------------------|
d|------------------------------------------|
a|------------------------------------------|
d|------------------------------------------|
 |
e|------------------------|
g|------------------------|
d|-2~--------------4~--5~-|
a|-2~--------------4~--5~-|
d|-2~--------------4~--5~-|

e|-19-19-19-20-20-20-22-22-22-22-22-22-22-22-|
b|-------------------------------------------|
g|-------------------------------------------|
d|-------------------------------------------|
a|-------------------------------------------|
d|-------------------------------------------|
 |
e|-------------------------|
b|-------------------------|
g|-------------------------|
d|-0~--------------5~--4~--|
a|-0~--------------5~--4~--|
d|-0~--------------5~--4~--|

Chorus:

both Gtrs

e|-0-0-0-0-0-0-0-0-0-0-0-0-0-0-10-0-|
b|-5-5-5-7-7-7-8-8-8-7-7-7-7-7----7-|
g|----------------------------------| x3
d|----------------------------------|
a|----------------------------------|
d|----------------------------------|

e|-0-0-0-0-0-0-0-0-0-0--0--0--0--0--0--0—-0--0----0--0----0-0~-|
b|-5-5-5-7-7-7-8-8-8-10-10-10-10-10-10-10-12-12---10-10---8-8~-|
g|----------------------------------------12-12---11-11---9-9~-|
d|-------------------------------------------------------------|
a|-------------------------------------------------------------|
d|-------------------------------------------------------------|

Breakdown:

 |Both Gtrs
e|------------------------------------------------------|
b|------------------------------------------------------|
g|------------------------------------------------------| x2
d|---2222222-----2222222-----22222222-----5555550--0--0-|
a|---2222222-----2222222-----22222222-----5555550--0--0-|
d|---2222222-----2222222-----22222222-----5555550--0--0-|

Outro:

 |Gtr 1
e|-------------------------------------------------|
b|-12-12-12-12-12-12-12-12-10-10-10-10-10-10-10-10-|
g|-------------------------------------------------|
d|-------------------------------------------------|
a|-------------------------------------------------|
d|-------------------------------------------------|
 |
e|------------------------------------|
b|------------------------------------|
g|------------------------------------|
d|---2222222-----2222222-----22222222-|
a|---2222222-----2222222-----22222222-|
d|---2222222-----2222222-----22222222-|

e|-------------------------------|
b|-8-8-8-7-7-7-7-7-8-8-8-7-7-7-7-|
g|-------------------------------|
d|-------------------------------|
a|-------------------------------|
d|-------------------------------|
 |
e|------------------|
b|------------------|
g|------------------|
d|----5555550--0--0-|
a|----5555550--0--0-|
d|----5555550--0--0-|

e|-------------------------------------------------|
b|-12-12-12-12-12-12-12-12-10-10-10-10-10-10-10-10-|
g|-------------------------------------------------|
d|-------------------------------------------------|
a|-------------------------------------------------|
d|-------------------------------------------------|
 |
e|------------------------------------|
b|------------------------------------|
g|------------------------------------|
d|---2222222-----2222222-----22222222-|
a|---2222222-----2222222-----22222222-|
d|---2222222-----2222222-----22222222-|

e|-------------------------------|
b|-8-8-8-7-7-7-7-7-8-8-8-7--7--7-|
g|-------------------------------|
d|-------------------------------|
a|-------------------------------|
d|-------------------------------|
 |
e|------------------|
b|------------------|
g|------------------|
d|----5555550--0--0-|
a|----5555550--0--0-|
d|----5555550--0--0-|


| /   slide up
| \   slide down
| h   hammer-on
| p   pull-off
| ~   vibrato
| +   harmonic
| x   Mute note
| b   Bend
| pb  Pre-bend
| br  Bend release
| pbr Pre-bend release
| brb Bend release bend


there they are. enjoy and hope the tabs helped!
if you have comments, you can e-mail me at heeheehaha1@gmail.com, but i rarely check my 
so don't get mad if i respond five years late...

            
            
Suggest correction
Creating personal tab
Creating personal tab
You can edit any tab online and save it as your Personal.

You can edit, replace or remove any tab part or add personal notes – all changes will be seen only by you.

Personal tabs can be accessed anytime from any device, even offline.
Learn more »
Give kudos to tab author, rate the tab!
1 2 3 4 5
comments
print report bad tab
guest
You may want to rate the tab now too:
select rating
Wanna post a correction for this tab? Suggest correction