Oops, an error
Loading. Please wait.

Project Wakeup Tab

version 4
version 4

Whole song

Interactive

141 views 1 this week
no commentswrite comment
1 2 3 4 5
3 more votes to show rating
add to favorites
launch autoscroll
font size
0
reset
how to read this tab
guitar tuner
Autoscroll
slow
fast
+/-
esc
set tempo
stop
Help us to improve Ultimate-Guitar.com Take our survey!
×
Author
Difficulty
Tuning
intermediate
D A D G B E
I See Stars - Project Wakeup

This is a really confusing tab due to the synthesizers,
it's probably like 80% correct. I kept making changes 
to the tab that I used so I just decided to make this tab.

You can play most of the the synthesizer parts on guitar
but you might also need another guitar over some synth
parts
Good feedback is nice to have guys :D

x12 means times 12 as in you play the note 12 times

MAKE SURE YOU PAY ATTENTION TO THE STATUS LINE

___________________________________________________________
Intro Lead
(:00-:08) and (:11-:19)
e|7h10-10/12-12-x12-7h10-12-------------------------------|
B|--------------------------10-x16------------------------|
G|---------------------------------9-99-9-9-9-9-----------|
D|---------------------------------x-xx-x-x-x-x-----------|
A|---------------------------------7-77-7-7-7-7-----------|
D|--------------------------------------------------------|

Intro Rhythm
(:00-:13)
e|--------------------------------------------------------|
B|--------------------------------------------------------|
G|--------------------------------------------------------|
D|-2-------------0-----------2---------5-----4/5\2-0-000--|
A|-2-x12-4/5\2-0-0-x12-4/5\2-2-x12-4/5-5-x12-4/5\2-0-000--|
D|-2-----4/5\2-0-0-----4/5\2-2-----4/5-5-----4/5\2-0-000--|
:|                                                   ...  |

Intro Rhythm cont.
(:13-:24)
e|--------------------------------------------------------|
B|--------------------------------------------------------|
G|--------------------------------------------------------|
D|---------------------------2-------------0--------------|
A|-555-0~--000-000-----------2-x12-4/5\2-0-0-x12-4/5\2-0--|
D|-555-0~--000-000-----------2-----4/5\2-0-0-----4/5\2-0--|
:|         ... ...                                        |
___________________________________________________________
Chorus
 x4                         End With [Mute during pauses]
e|-------------------10p0-| |-----------------------------|
B|-555-777-888-777777-----| |-88-77-5~--------------------|
G|------------------------| |-xx-xx-x---------------------|
D|------------------------| |-55-44-2~--------------------|
A|------------------------| |-----------------------------|
D|------------------------| |-----------------------------|
:|                              .  .                      |
___________________________________________________________
Synthesizer Part [I don't even know this part, this is 
just how I play it]
(:38-:49)
e|-12-7-10~---10-5-7~---12-10-7~--15-14-12~--12-12-12-12-|
B|-------------------------------------------------------|
G|-------------------------------------------------------|
D|-------------------------------------------------------|
A|-------------------------------------------------------|
D|-------------------------------------------------------|
:|                                           b  b  b  b  |

Synth Part cont.
(:49-:54)
e|-0h2h3-0h2h3-------------------------------------------|
B|-------------3h5h7-3h5h7-1h3h5-1h3h5-3h5h7-3h5h7-------|
G|-------------------------------------------------------|
D|-------------------------------------------------------|
A|-------------------------------------------------------|
D|-------------------------------------------------------|
:|                                                       |

Synth Part cont.
(:54-1:00)
e|-0h2h3-0h2h3-------------------------------------------|
B|-------------3h5h7-3h5h7-1h3h5-1h3h5-3h5h7-5h7h8~------|
G|-------------------------------------------------------|
D|-------------------------------------------------------|
A|-------------------------------------------------------|
D|-------------------------------------------------------|
:|                                                       |
__________________________________________________________
Bridge Lead
(1:02-1:06)
[Riffs are hard to make out, not 60% correct]
e|14p13-13p12-10p12--14p13-13p12-10p8--------------------|
B|-------------------------------------------------------|
G|-------------------------------------------------------|
D|-------------------------------------------------------|
A|-------------------------------------------------------|
D|-------------------------------------------------------|
:|                                                       |
Bridge Lead cont.
(1:07-1:11)
[See legend for help]
e|-14p12-14h12-15h12-15h12-17h12 17h12-19-20-22----------|
B|-------------------------------------------------------|
G|-------------------------------------------------------|
D|-------------------------------------------------------|
A|-------------------------------------------------------|
D|-------------------------------------------------------|
:|                                      "  "  "          |

Bridge Rhythm
(1:00-1:11)
e|--------------------------------------------------------|
B|--------------------------------------------------------|
G|--------------------------------------------------------|
D|-2~---4-5-0~---5-4-2~---4-5-7~--------------------------|
A|-2~---4-5-0~---5-4-2~---4-5-7~--------------------------|
D|-2~---4-5-0~---5-4-2~---4-5-7~--------------------------|
:|                                                        |
__________________________________________________________
Solo Synth [Dont tap, pick and pull off]
(1:12-128) x6
e|-12p0-14p0-15p0-14p0---14p0-15p0-19p0------------------|
B|-------------------------------------------------------|
G|-------------------------------------------------------|
D|-------------------------------------------------------|
A|-------------------------------------------------------|
D|-------------------------------------------------------|
:|                                                       |

Solo Synth cont.
(1:28-1:40) x4
e|-12-14-15-14~---19-15-14-------------------------------|
B|-------------------------------------------------------|
G|-------------------------------------------------------|
D|-------------------------------------------------------|
A|-------------------------------------------------------|
D|-------------------------------------------------------|
:|                                                       |

Solo Rhythm
(1:17-1:28) x2
[Play the notes open but mute the strings during pauses]
e|--------------------------------------------------------|
B|--------------------------------------------------------|
G|--------------------------------------------------------|
D|-22-22-22-44-5500-00-00-00-55-4422----------------------|
A|-22-22-22-44-5500-00-00-00-55-4422----------------------|
D|-22-22-22-44-5500-00-00-00-55-4422----------------------|
:|   .  .  .  .    .  .  .  .  .    .                     |

Solo Rhythm cont.
(1:28-1:40) x2
e|--------------------------------------------------------|
B|--------------------------------------------------------|
G|--------------------------------------------------------|
D|-22~-22~-22~-44~-5500~-00~-00~-00~-55~-4422~------------|
A|-22~-22~-22~-44~-5500~-00~-00~-00~-55~-4422~------------|
D|-22~-22~-22~-44~-5500~-00~-00~-00~-55~-4422~------------|
:|                                                        |

Solo Lead
(1;37-1:40)
e|-19-20-22----------------------------------------------|
B|-------------------------------------------------------|
G|-------------------------------------------------------|
D|-------------------------------------------------------|
A|-------------------------------------------------------|
D|-------------------------------------------------------|
:| "  "  "                                               |

__________________________________________________________
Breakdown Lead
(2:09-2:25) x2                        [Mute between pauses]    
e|--------------------------------------------------------|
B|-12------10------8------7------8------7-7-7-------------|
G|-x--x16--x--x16--x--x6--x--x6--x--x4--x-x-x-------------|
D|-9-------7-------5------4------5------4-4-4-------------|
A|--------------------------------------------------------|
D|--------------------------------------------------------|
:|                                       . . .            |

Breakdown Ryhthm
(1:54-2:25) x4
e|--------------------------------------------------------|
B|--------------------------------------------------------|
G|--------------------------------------------------------|
D|-222222---222222---222222---5555-0-0-0------------------|
A|-222222---222222---222222---5555-0-0-0------------------|
D|-222222---222222---222222---5555-0-0-0------------------|
:|                                  . . .                 |

LEGEND
.  Palm mute
x  String mute
p  Pull off
h  Hammer on
"  tremolo picking
/  Slide up
\  Slide down
t  Tap
~  Let ring
Suggest correction
Give kudos to tab author, rate the tab!
1 2 3 4 5
comments
print report bad tab
guest
You may want to rate the tab now too:
select rating
Wanna post a correction for this tab? Suggest correction