Oops, an error
Loading. Please wait.

Running With Scissors drums

118 views 3 this week
no commentswrite comment
1 2 3 4 5
3 more votes to show rating
add to favorites
×
Save as Personal and add changes to this tab that will be seen only by you. Learn more ›
×
You can save this tab as Personal to edit and correct it or add notes. All changes will be seen only by you. Learn more »
launch autoscroll
font size
0
reset
guitar tuner
edit
Autoscroll
slow
fast
+/-
esc
set tempo
stop
     Q    Q    Q     Q        E.   S  E   E   S  E.   Q
C||-----------------41----|--57---36-57--36--57-36---57----|
C||-----------------45----|--36------40--------------40----|
C||-----------------------|--------------------------------|
C||-----------------------|--------------------------------|
C||-----------------------|--------------------------------|
C||-----------------------|--------------------------------|


   E   E   Q     E.   S  E   S  S     S  S  E   S  E.   E.   S  E   E
--57--36--57----57---36-57--36-36-|--36-36-36--57-36---57---36-57--36--|
----------40----36------40--------|--57--------40------36------40------|
----------------------------------|------------------------------------|
----------------------------------|------------------------------------|
----------------------------------|------------------------------------|
----------------------------------|------------------------------------|


   E   E   E   S  S  S  S  S  S  Q        E.   S  E   E   E   S  S  E   E
--57--36--57--45-45-43-43-43-41-40----|--57---36-42--36--40--42-42-36--42--|
----------40--------------------------|--36--------------42--------42------|
--------------------------------------|------------------------------------|
--------------------------------------|------------------------------------|
--------------------------------------|------------------------------------|
--------------------------------------|------------------------------------|


   T  T  T  T  S  S  S  S  S  S  E   S  S  E   E
--42-42-42-42-36-42-42-36-42-42-40--42-36-42--36--|
--------------42----------------------------------|
--------------------------------------------------|
--------------------------------------------------|
--------------------------------------------------|
--------------------------------------------------|


   S  S  S  S  S  S  S  S  S  S  S  S  S  S  S  S
--42-42-42-36-42-42-36-42-40-42-42-42-36-42-42-42-|
--36-------42-------42-------36-------42----------|
--------------------------------------------------|
--------------------------------------------------|
--------------------------------------------------|
--------------------------------------------------|


   S  S  S  S  S  E.   E   S  S  S  S  S  S     W
--42-42-42-42-42-36---40--40-40-40-45-43-41-|--41----------------|-------|
--------36-------42-------------------------|--------------------|-------|
--------------------------------------------|--------------------|-------|
--------------------------------------------|--------------------|-------|
--------------------------------------------|--------------------|-------|
--------------------------------------------|--------------------|-------|


-------|----|-------|----|-------|-------|----|-------|-------|----|-------|
-------|----|-------|----|-------|-------|----|-------|-------|----|-------|
-------|----|-------|----|-------|-------|----|-------|-------|----|-------|
-------|----|-------|----|-------|-------|----|-------|-------|----|-------|
-------|----|-------|----|-------|-------|----|-------|-------|----|-------|
-------|----|-------|----|-------|-------|----|-------|-------|----|-------|


                           E.   S  E   E   E.   S  Q
-------|-------|-------|--57---36-42--36--42---40-42----|
-------|-------|-------|--36--------------40------------|
-------|-------|-------|--------------------------------|
-------|-------|-------|--------------------------------|
-------|-------|-------|--------------------------------|
-------|-------|-------|--------------------------------|


   E.   S  E   E   Q     Q        E.   S  E   E   E.   S  Q
--42---36-42--36--36----40----|--42---36-42--36--42---40-42----|
--36--------------42----46----|--36--------------40------------|
------------------------------|--------------------------------|
------------------------------|--------------------------------|
------------------------------|--------------------------------|
------------------------------|--------------------------------|


   E.   S  E   E   Q     E   S  S     E.   S  E   E   E.   S  Q
--42---36-42--36--36----42--40-40-|--57---36-42--36--42---40-42----|
--36--------------42----40--------|--36--------------40------------|
----------------------------------|--------------------------------|
----------------------------------|--------------------------------|
----------------------------------|--------------------------------|
----------------------------------|--------------------------------|


   E.   S  E   E   Q     Q        E.   S  E   E   E.   S  Q
--42---36-42--36--36----40----|--42---36-42--36--42---40-42----|
--36--------------42----46----|--36--------------40------------|
------------------------------|--------------------------------|
------------------------------|--------------------------------|
------------------------------|--------------------------------|
------------------------------|--------------------------------|


   E   S  S  S  S  S  S  H            E.   S  E   E   E.   S  Q
--42--40-40-40-45-43-41-40--------|--57---36-49--36--40---36-49----|
--36------------------------------|--36--------------49------------|
----------------------------------|--------------------------------|
----------------------------------|--------------------------------|
----------------------------------|--------------------------------|
----------------------------------|--------------------------------|


   Q     Q     E.   S  Q        E.   S  E   E   E.   S  Q
--57----49----40---36-49----|--57---36-49--36--40---36-49----|
--36----------49------------|--36--------------49------------|
----------------------------|--------------------------------|
----------------------------|--------------------------------|
----------------------------|--------------------------------|
----------------------------|--------------------------------|


   Q     E   E   E   T  T  S  E   E      E.   S  E   E   E.   S  Q
--57----49--36--40--36-36-36-41--36--|--57---36-49--36--40---36-49----|
--36------------49-----------40------|--36--------------49------------|
-------------------------------------|--------------------------------|
-------------------------------------|--------------------------------|
-------------------------------------|--------------------------------|
-------------------------------------|--------------------------------|


   Q     Q     E.   S  Q        E.   S  E   E   E.   S  E   E
--57----49----40---36-49----|--57---36-49--36--40---36-49--36--|
--36----------49------------|--36--------------49--------------|
----------------------------|----------------------------------|
----------------------------|----------------------------------|
----------------------------|----------------------------------|
----------------------------|----------------------------------|


   E   S  S  S  S  S  S  E   S  S  S  S  S  S     E.   S  E   E   E.   S  Q
--57--40-40-40-40-36-36-40--40-40-40-40-43-41-|--57---36-49--36--40---36-49----|
--36--------------------57--------------------|--36--------------49------------|
----------------------------------------------|--------------------------------|
----------------------------------------------|--------------------------------|
----------------------------------------------|--------------------------------|
----------------------------------------------|--------------------------------|


   Q     Q     E.   S  Q        E.   S  E   E   E.   S  Q
--57----49----40---36-49----|--57---36-49--36--40---36-49----|
--36----------49------------|--36--------------49------------|
----------------------------|--------------------------------|
----------------------------|--------------------------------|
----------------------------|--------------------------------|
----------------------------|--------------------------------|


   Q     E   E   E   S  S  S  S  S  S     E.   S  E   E   Q     E   E
--57----49--36--40--36-36-40-40-36-36-|--57---36-46--36--46----46--36--|
--36------------49--------------------|--36------40------------40------|
--------------------------------------|--------------------------------|
--------------------------------------|--------------------------------|
--------------------------------------|--------------------------------|
--------------------------------------|--------------------------------|


   E.   S  E   E   Q     S  S  S  S     E.   S  E   E   Q     E   E
--36---36-46--36--46----40-36-36-40-|--57---36-40--36--46----46--36--|
--46------40------------46----------|--36------46------------40------|
------------------------------------|--------------------------------|
------------------------------------|--------------------------------|
------------------------------------|--------------------------------|
------------------------------------|--------------------------------|


   E   S  S  E.   S  S  S  S  S  S  S  S  S    Q     H         Q
--46--41-41-46---36-40-40-45-45-43-43-41-41-|-------42--------42----|
--36----------------------------------------|-----------------------|
--------------------------------------------|-----------------------|
--------------------------------------------|-----------------------|
--------------------------------------------|-----------------------|
--------------------------------------------|-----------------------|


  Q     H         Q        E.   S  E   E.   E.   Q
-------42--------42----|--36---36-42--36---36---42----|
-----------------------|------------------------36----|
-----------------------|------------------------------|
-----------------------|------------------------------|
-----------------------|------------------------------|
-----------------------|------------------------------|


  E   E   S  E.   E.   S  E   S  S     E.   E.   E.   E.   E   S  S
-----36--42-36---36---36-40--40-40-|--36---40---40---40---40--43-45-|
-------------------------42--------|--57----------------------------|
-----------------------------------|--------------------------------|
-----------------------------------|--------------------------------|
-----------------------------------|--------------------------------|
-----------------------------------|--------------------------------|


   E   E.   E.   E.   S  S  E   S     E.   S  E   E.   S  E   E.   S
--41--40---45---43---36-40-36--40-|--36---40-40--36---40-40--36---36-|
--36------------------------------|--57----------49----------57------|
----------------------------------|----------------------------------|
----------------------------------|----------------------------------|
----------------------------------|----------------------------------|
----------------------------------|----------------------------------|


                   |--3--|  |--3--|
   E.   S  E   E   S  S  S  S  S  S  Q        E.   S  E   E   S  E.   Q
--40---40-40--45--36-45-45-36-41-41-40----|--57---36-57--36--57-36---57----|
------------------45-------41-------------|--36------40--------------40----|
------------------------------------------|--------------------------------|
------------------------------------------|--------------------------------|
------------------------------------------|--------------------------------|
------------------------------------------|--------------------------------|


   E   E   S  E.   E.   S  E   S  S     S  S  S  S  S  E.   E.   S  E   E
--57--36--57-36---57---36-57--36-36-|--36-36-36-36-57-36---57---36-57--36--|
----------40------36------40--------|--57----------40------36------40------|
------------------------------------|--------------------------------------|
------------------------------------|--------------------------------------|
------------------------------------|--------------------------------------|
------------------------------------|--------------------------------------|


   E   E   S  E.   E.   S  S  S  S  S     E.   S E   E   E   E   Q
--57--36--57-36---57---36-40-36-36-36-|--57---36----36--57--36--57----|
----------40------36------------41----|--36---49----57--40--49--36----|
--------------------------------------|-------------------------------|
--------------------------------------|-------------------------------|
--------------------------------------|-------------------------------|
--------------------------------------|-------------------------------|


   E   E   S  E.   E.   S  E   E      E.   S  E   E   E   E   Q
--49--36--49-36---57---36-49--36--|--57---36-49--36--57--36--36----|
------------------40--------------|--36--------------40------49----|
----------------------------------|--------------------------------|
----------------------------------|--------------------------------|
----------------------------------|--------------------------------|
----------------------------------|--------------------------------|


   E   E   S  E.   S  S  S  S  S  S  S  S     Q     E   E   E   E   Q
--49--36--49-36---40-36-45-45-40-36-41-41-|--57----42--36--42--36--42----|
------------------57----------------------|--36------------40------------|
------------------------------------------|------------------------------|
------------------------------------------|------------------------------|
------------------------------------------|------------------------------|
------------------------------------------|------------------------------|


   Q     Q     E   E   E   E      Q     E   E   E   E   E   E
--42----42----42--36--42--40--|--42----42--36--42--36--42--40--|
--36----------40--------------|--36------------40--------------|
------------------------------|--------------------------------|
------------------------------|--------------------------------|
------------------------------|--------------------------------|
------------------------------|--------------------------------|


   T  T  T  T  S  S  E   E   E   E   E   E      Q     E   E   E   E   Q
--42-42-42-42-42-42-42--42--42--42--42--40--|--42----42--36--42--36--42----|
--36--------------------36--36--36--40------|--36------------40------------|
--------------------------------------------|------------------------------|
--------------------------------------------|------------------------------|
--------------------------------------------|------------------------------|
--------------------------------------------|------------------------------|


   Q     Q     E   E   E   E      Q     E   E   E   E   E   E
--42----42----42--36--42--40--|--42----42--36--42--36--42--40--|
--36----------40--------------|--36------------40--------------|
------------------------------|--------------------------------|
------------------------------|--------------------------------|
------------------------------|--------------------------------|
------------------------------|--------------------------------|


   T  T  T  T  S  S  E   E   E   E   E   E
--42-42-42-42-42-42-42--42--42--42--42--40--|
--36--------------------36--36--36--40------|
--------------------------------------------|
--------------------------------------------|
--------------------------------------------|
--------------------------------------------|


   Q     E   S  S  S  S  E   E   E      E   S  S  E   S  S  S  S  E   E   S  S
--36----36--42-42-36-42-42--36--42--|--36--42-42-36--42-42-36-42-42--36--42-42-|
--57--------------42----------------|--42--------42--------42------------------|
------------------------------------|------------------------------------------|
------------------------------------|------------------------------------------|
------------------------------------|------------------------------------------|
------------------------------------|------------------------------------------|


   Q     E   S  S  S  S  E   S  E   S
--36----36--42-42-36-42-42--36-42--42-|
--57--------------42------------------|
--------------------------------------|
--------------------------------------|
--------------------------------------|
--------------------------------------|


   E   S  S  E   S  S  S  S  E   S  S  S  S
--36--42-42-36--42-42-36-42-42--36-42-42-42-|
--42--------42--------42--------------------|
--------------------------------------------|
--------------------------------------------|
--------------------------------------------|
--------------------------------------------|


   Q     E   S  S  S  S  E   S  S  E      Q     E   S  S  S  S  E   S  S  E
--36----36--41-41-36-41-41--36-41-41--|--36----36--41-41-36-41-41--36-41-41--|
--57--------------41------------------|--41--------------41------------------|
--------------------------------------|--------------------------------------|
--------------------------------------|--------------------------------------|
--------------------------------------|--------------------------------------|
--------------------------------------|--------------------------------------|


   Q     E   S  S  S  S  S  S  E.   T  T
--36----36--41-41-36-41-41-41-36---36-36-|
--41--------------41----------41---------|
--57-------------------------------------|
-----------------------------------------|
-----------------------------------------|
-----------------------------------------|


      S. S. S  S. S. S  S. S. S     Q        E.   S  E   E   E.   S  Q
--40g40-36-36-43-36-36-41-36-36-40g40----|--57---36-49--36--40---36-49----|
--------------45-------43----------------|--36--------------49------------|
-----------------------------------------|--------------------------------|
-----------------------------------------|--------------------------------|
-----------------------------------------|--------------------------------|
-----------------------------------------|--------------------------------|


   Q     Q     E.   S  Q        E.   S  E   E   E.   S  Q
--57----49----40---36-49----|--57---36-49--36--40---36-49----|
--36----------49------------|--36--------------49------------|
----------------------------|--------------------------------|
----------------------------|--------------------------------|
----------------------------|--------------------------------|
----------------------------|--------------------------------|


   Q     E   E   E   S  S     E   E      E.   S  E   E   E.   S  Q
--57----49--36--40--36-36-40g40--36--|--57---36-49--36--40---36-49----|
--36------------49-------------------|--36--------------49------------|
-------------------------------------|--------------------------------|
-------------------------------------|--------------------------------|
-------------------------------------|--------------------------------|
-------------------------------------|--------------------------------|


   Q     Q     E.   S  Q        E.   S  E   E   E.   S  E   E
--57----49----40---36-49----|--57---36-49--36--40---36-49--36--|
--36----------49------------|--36--------------49--------------|
----------------------------|----------------------------------|
----------------------------|----------------------------------|
----------------------------|----------------------------------|
----------------------------|----------------------------------|


   E   S  S  S  S  S  S  E   S  S  S  S  S  S     E.   S  E   E   E.   S  Q
--57--40-40-40-40-36-36-40--40-40-40-40-43-41-|--57---36-49--36--40---36-49----|
--36--------------------57--------------------|--36--------------49------------|
----------------------------------------------|--------------------------------|
----------------------------------------------|--------------------------------|
----------------------------------------------|--------------------------------|
----------------------------------------------|--------------------------------|


   Q     Q     E.   S  Q        E.   S  E   E   E.   S  Q
--57----49----40---36-49----|--57---36-49--36--40---36-49----|
--36----------49------------|--36--------------49------------|
----------------------------|--------------------------------|
----------------------------|--------------------------------|
----------------------------|--------------------------------|
----------------------------|--------------------------------|


   Q     E   E   E   S  S  S  S  S  S     E.   S  E   E   Q     E   E
--57----49--36--40--36-36-40-40-36-36-|--57---36-46--36--46----46--36--|
--36------------49--------------------|--36------40------------40------|
--------------------------------------|--------------------------------|
--------------------------------------|--------------------------------|
--------------------------------------|--------------------------------|
--------------------------------------|--------------------------------|


   E.   S  E   E   Q     S  S  S  S     E.   S  E   E   Q     Q
--36---36-46--36--46----40-36-36-40-|--57---36-40--36--46----46----|
--46------40------------46----------|--36------46------------40----|
------------------------------------|------------------------------|
------------------------------------|------------------------------|
------------------------------------|------------------------------|
------------------------------------|------------------------------|


   E   S  S  E   S  S  S  S  S  S  E   E      W
--46--36-36-46--36-36-40-40-36-36-43--36--|--36----------------|-----------|
--36--------40--------------------41------|--57----------------|-----------|
----------------------------------36------|--------------------|-----------|
------------------------------------------|--------------------|-----------|
------------------------------------------|--------------------|-----------|
------------------------------------------|--------------------|-----------|


-----------|-----------|-----------|-----------|-----------|-----------|
-----------|-----------|-----------|-----------|-----------|-----------|
-----------|-----------|-----------|-----------|-----------|-----------|
-----------|-----------|-----------|-----------|-----------|-----------|
-----------|-----------|-----------|-----------|-----------|-----------|
-----------|-----------|-----------|-----------|-----------|-----------|


   Q     Q     Q     Q        Q     Q     Q     Q
--36----42----42----42----|--42----42----42----42----|
--42----------------------|--------------------------|
--------------------------|--------------------------|
--------------------------|--------------------------|
--------------------------|--------------------------|
--------------------------|--------------------------|


   Q     Q     Q     Q        Q     Q     Q     Q
--36----42----42----42----|--42----42----42----42----|
--42----------------------|--------------------------|
--------------------------|--------------------------|
--------------------------|--------------------------|
--------------------------|--------------------------|
--------------------------|--------------------------|


   Q     Q     Q     Q        Q     Q     Q     E   S  S
--36----42----42----36----|--42----36----42----42--40-40-|
--42----36----36----42----|--36----42----36----36--------|
--------------------------|------------------------------|
--------------------------|------------------------------|
--------------------------|------------------------------|
--------------------------|------------------------------|


                                   |--3--|  |--3--|
   S  E.   S  S  S  S  S  S  S  S  S  S  S  S  S  S     W
--36-40---36-40-40-40-36-40-40-40-36-40-40-40-45-45-|--40----------------|
--42------42----------42----------42----------------|--------------------|
--40------40----------40----------40----------------|--------------------|
----------------------------------------------------|--------------------|
----------------------------------------------------|--------------------|
----------------------------------------------------|--------------------|


   Q     Q     Q     Q        Q     Q     Q     Q
--36----49----49----49----|--36----49----49----49----|
--57----------40----------|--57----------40----------|
--------------------------|--------------------------|
--------------------------|--------------------------|
--------------------------|--------------------------|
--------------------------|--------------------------|


   Q     Q     Q     Q        Q     Q     E.   E.   E
--36----49----49----49----|--36----49----49---36---49--|
--57----------40----------|--57----------40---57---36--|
--------------------------|----------------------------|
--------------------------|----------------------------|
--------------------------|----------------------------|
--------------------------|----------------------------|


   Q     Q     Q     Q        Q     Q     Q     Q
--36----49----49----49----|--36----49----49----49----|
--57----------40----------|--57----------40----------|
--------------------------|--------------------------|
--------------------------|--------------------------|
--------------------------|--------------------------|
--------------------------|--------------------------|


   Q     Q     Q     Q        Q     Q     E   S  S  S  S  S  S
--36----49----49----49----|--36----49----49--40-40-40-40-36-36-|
--57----------40----------|--57----------40--------------57-49-|
--------------------------|------------------------------------|
--------------------------|------------------------------------|
--------------------------|------------------------------------|
--------------------------|------------------------------------|


   Q     Q     Q     Q        Q     Q     E.   S  Q
--36----49----49----49----|--36----49----49---36-49----|
--57----------40----------|--57----------40------------|
--------------------------|----------------------------|
--------------------------|----------------------------|
--------------------------|----------------------------|
--------------------------|----------------------------|


   Q     Q     Q     Q        Q     Q     E.   S  Q
--36----49----49----49----|--36----49----49---36-49----|
--57----------40----------|--57----------40------------|
--------------------------|----------------------------|
--------------------------|----------------------------|
--------------------------|----------------------------|
--------------------------|----------------------------|


   Q     Q     Q     Q        Q     Q     E.   S  Q
--36----49----49----49----|--36----49----49---36-49----|
--57----------40----------|--57----------40------------|
--------------------------|----------------------------|
--------------------------|----------------------------|
--------------------------|----------------------------|
--------------------------|----------------------------|


   Q     Q     E.   S  Q        S  S  S  S  S  S  S  S  E   S  S  S  S  S  S
--36----49----49---36-49----|--36-45-45-45-43-43-43-43-40--43-43-43-43-41-41-|
--57----------40------------|--57--------------------------------------------|
----------------------------|------------------------------------------------|
----------------------------|------------------------------------------------|
----------------------------|------------------------------------------------|
----------------------------|------------------------------------------------|


   Q     E   E   E   E   Q        Q     Q     E   E   E   E
--57----42--36--42--36--42----|--42----42----42--36--42--40--|
--36------------40------------|--36----------40--------------|
------------------------------|------------------------------|
------------------------------|------------------------------|
------------------------------|------------------------------|
------------------------------|------------------------------|


   Q     E   E   E   E   E   E      T  T  T  T  S  S  E   E   E   E   E   E
--42----42--36--42--36--42--40--|--42-42-42-42-42-42-42--42--42--42--42--40--|
--36------------40--------------|--36--------------------36--36--36--40------|
--------------------------------|--------------------------------------------|
--------------------------------|--------------------------------------------|
--------------------------------|--------------------------------------------|
--------------------------------|--------------------------------------------|


   Q     E   E   E   E   Q        Q     Q     E   E   E   E
--42----42--36--42--36--42----|--42----42----42--36--42--40--|
--36------------40------------|--36----------40--------------|
------------------------------|------------------------------|
------------------------------|------------------------------|
------------------------------|------------------------------|
------------------------------|------------------------------|


   Q     E   E   E   E   E   E      T  T  T  T  S  S  E   E   E   E   E   E
--42----42--36--42--36--42--40--|--42-42-42-42-42-42-42--42--42--42--42--40--|
--36------------40--------------|--36--------------------36--36--36--40------|
--------------------------------|--------------------------------------------|
--------------------------------|--------------------------------------------|
--------------------------------|--------------------------------------------|
--------------------------------|--------------------------------------------|


   Q     E   E   E   E   Q        Q     Q     E   E   E   E
--36----42--36--42--36--42----|--42----42----42--36--42--40--|
--42------------40------------|--36----------40--------------|
------------------------------|------------------------------|
------------------------------|------------------------------|
------------------------------|------------------------------|
------------------------------|------------------------------|


   Q     E   E   E   E   E   E      T  T  T  T  S  S  E   E   E   E   E   E
--42----42--36--42--36--42--40--|--42-42-42-42-42-42-42--42--42--42--42--40--|
--36------------40--------------|--36--------------------36--36--36--40------|
--------------------------------|--------------------------------------------|
--------------------------------|--------------------------------------------|
--------------------------------|--------------------------------------------|
--------------------------------|--------------------------------------------|


   Q     E   E   E   E   Q        Q     Q     E   E   E   E
--42----42--36--42--36--42----|--42----42----42--36--42--40--|
--36------------40------------|--36----------40--------------|
------------------------------|------------------------------|
------------------------------|------------------------------|
------------------------------|------------------------------|
------------------------------|------------------------------|


   Q     E   E   E   E   E   E      T  T  T  T  S  S  E   E   E   E   E   E
--42----42--36--42--36--42--40--|--42-42-42-42-42-42-42--42--42--42--42--40--|
--36------------40--------------|--36--------------------36--36--36--40------|
--------------------------------|--------------------------------------------|
--------------------------------|--------------------------------------------|
--------------------------------|--------------------------------------------|
--------------------------------|--------------------------------------------|


-----------|-----------|-------||
-----------|-----------|-------||
-----------|-----------|-------||
-----------|-----------|-------||
-----------|-----------|-------||
-----------|-----------|-------||




Duration Legend
--------------- 
Q - quarter
E - 8th
S - 16th
T - 32nd 
. - note dotted
|-n-|  - n-tuplets

            
            
Suggest correction
Creating personal tab
Creating personal tab
You can edit any tab online and save it as your Personal.

You can edit, replace or remove any tab part or add personal notes – all changes will be seen only by you.

Personal tabs can be accessed anytime from any device, even offline.
Learn more »
Give kudos to tab author, rate the tab!
1 2 3 4 5
comments
print report bad tab
guest
You may want to rate the tab now too:
select rating
Wanna post a correction for this tab? Suggest correction