Oops, an error
Loading. Please wait.

The End Of The World Party Tab

8,695 views 6 this week
2 commentsread comments
1 2 3 4 5
excellent!
x 4
add to favorites
launch autoscroll
font size
0
reset
how to read this tab
guitar tuner
Autoscroll
slow
fast
+/-
esc
set tempo
stop
Help us to improve Ultimate-Guitar.com Take our survey!
×
Author
Difficulty
Tuning
intermediate
D A D G B E
-------------------------------------------------------------------------------
	         I See Stars - The End of the World Party
-------------------------------------------------------------------------------

Tabbed by: Tyler Bledsoe 

Tuning: Drop D

Enjoy & check out my youtube channel! 

youtube.com/bledsoe2009



  Intro/Verse/Outro (Lead) (x2 during verses)
e|---------------------------------------------------------------------------|
B|---------------------------------------------------------------------------|
G|-10-10-10-10p9h10--10-10-10-12p1010--10-10-10-10p9h10-10-10-10-12b13-------|
D|---------------------------------------------------------------------------|
A|---------------------------------------------------------------------------|
D|---------------------------------------------------------------------------|
P.M.|--------|   |----------|       |---------|      |---------|


e|-------12----------13----------12------------------------------------------|
B|---13------13--13------13--13------13--13--13~-----------------------------|
G|-10--10--10--10--10--10--10--10--10--10--10--------------------------------|
D|---------------------------------------------------------------------------|
A|---------------------------------------------------------------------------|
D|---------------------------------------------------------------------------|


  Intro/Outro (Rhythm)
e|---------------------------------------------------------------------------|
B|---------------------------------------------------------------------------|
G|---------------------------------------------------------------------------|
D|---------------------------------------------------------------------------|
A|-0------------------------------------------------0----0----0----0---------|
D|-0------------------------------------------------0----0----0----0---------|
(PM All)                                           

e|---------------------------------------------------------------------------|
B|---------------------------------------------------------------------------|
G|---------------------------------------------------------------------------|
D|---------------------------------------------------------------------------|
A|-000----------------------------0---0---0---0--0-0-------------------------|
D|-000----------------------------0---0---0---0--1-1-------------------------|

e|---------------------------------------------------------------------------|
B|---------------------------------------------------------------------------|
G|---------------------------------------------------------------------------|
D|---------------------------------------------------------------------------|
A|-0-0--------------------0-0--------------0-0-------------------------------|
D|-1-1--------------------1-1----044044----1-1-------------------------------|



   Chorus (Lead)							         (x2)
e|---------------------------------------------------------------------------|
B|---------------------------------------------------------------------------|
G|--x-7-x-7--7---x-10-x-10--10--x-12-x-12--12--x-14-x-14-14-14---------------|
D|--x-x-x-x--x---x-x--x-x---x---x-x--x-x---x---x-x--x-x--x--x----------------|
A|--x-5-x-5--5---x-8--x-8---8---x-10-x-10--10--x-12-x-12-12-12---------------|
D|---------------------------------------------------------------------------|
                                                                       
 									
e|--------------------------------------------------------20-18-17-----------|
B|-18-17-18-20-18-17-18-17-18-20-18-17-18-17-18-20-18-17-----------20-18-17--|
G|---------------------------------------------------------------------------|
D|---------------------------------------------------------------------------|
A|---------------------------------------------------------------------------|
D|---------------------------------------------------------------------------|


  Chorus (Rhythm)                                                          
e|---------------------------------------------------------------------------|
B|---------------------------------------------------------------------------|
G|---------------------------------------------------------------------------|
D|---------------------------------------------------------------------------|
A|-0--0-0---8--8-8---10--10-10--0--0-0---0--0-0---8--8-8---10--10-10---0-0-00|
D|-0--0-0---8--8-8---10--10-10--0--0-0---0--0-0---8--8-8---10--10-10---0-0-00|
							             PM|----|

e|---------------------------------------------------------------------------|
B|---------------------------------------------------------------------------|
G|---------------------------------------------------------------------------|
D|---------------------------------------------------------------------------|
A|-0-----8------10----0-0----0--0-0---8--8-8---10--10-10----0--0-000---------|
D|-0-----8------10----0-0----0--0-0---8--8-8---10--10-10----0--0-000---------|
							 PM|-------|
   
  Post-Chorus
e|---------------------------------------------------------------------------|
B|---------------------------------------------------------------------------|
G|---------------------------------------------------------------------------|
D|---------------------------------------------------------------------------|
A|-0--0--0---------0--0--0---------------------------------------------------|
D|-0--0--000000----0--0--000000----------------------------------------------|
PM|------|        |------|   


   Verse 1 & 2 (Rhythm)
e|---------------------------------------------------------------------------|
B|---------------------------------------------------------------------------|
G|---------------------------------------------------------------------------|
D|---------------------------------------------------------------------------|
A|-0--0--0--------0--0--0--------0--0--0--------0--0--0--------8--8--8-------|
D|-0--0--000000---0--0--000000---0--0--000000---0--0--000000---8--8--888888--|
  (Same PM pattern as the post-chorus)

e|---------------------------------------------------------------------------|
B|---------------------------------------------------------------------------|
G|---------------------------------------------------------------------------|
D|---------------------------------------------------------------------------|
A|-5--5--5---------0000000000--0000000000------------------------------------|
D|-5--5--555555----0000000000--0000000000------------------------------------|
                PM|----------------------|
  
   Bridge (Lead)
e|---------------------------------------------------------------------------|
B|---------------------------------------------------------------------------|
G|-7-7-7--7-7--7-7-7--7-7--7-7-7--7-7--77-7-77-7-----------------------------|
D|-x-x-x--x-x--x-x-x--x-x--x-x-x--x-x--xx-x-xx-x-----------------------------|
A|-5-5-5--5-5--5-5-5--5-5--5-5-5--5-5--55-5-55-5-----------------------------|
D|---------------------------------------------------------------------------|
  (Fade In)

e|---------------------------------------------------------------------------|
B|---------------------------------------------------------------------------|
G|-7-7--7-7--7-77-7-77---7-7--7-7--7-77-7-77---6-6--6-6--6-66-6-66-----------|
D|-x-x--x-x--x-xx-x-xx---x-x--x-x--x-xx-x-xx---x-x--x-x--x-xx-x-xx-----------|
A|-5-5--5-5--5-55-5-55---5-5--5-5--5-55-5-55---4-4--4-4--4-44-4-44-----------|
D|---------------------------------------------------------------------------|

e|---------------------------------------------------------------------------|
B|---------------------------------------------------------------------------|
G|-6-6--6-6--6-66-6-66---7-7--7-7--7-77-7-77---7-7--7-7--7--1010-10-1010-10--|
D|-x-x--x-x--x-xx-x-xx---x-x--x-x--x-xx-x-xx---x-x--x-x--x--x-x--x--x-x--x---|
A|-4-4--4-4--4-44-4-44---5-5--5-5--5-55-5-55---5-5--5-5--5--8-8--8--8-8--8---|
D|---------------------------------------------------------------------------|

e|---------------------------------------------------------------------------|
B|---------------------------------------------------------------------------|
G|-6-6--6-6--6-66-6-66---6-6--6-6--6-66-6-6-6--------------------------------|
D|-x-x--x-x--x-xx-x-xx---x-x--x-x--x-xx-x-x-x--------------------------------|
A|-4-4--4-4--4-44-4-44---4-4--4-4--4-44-4-4-4--------------------------------|
D|---------------------------------------------------------------------------|


  Bridge (Rhythm)
e|---------------------------------------------------------------------------|
B|---------------------------------------------------------------------------|
G|---------------------------------------------------------------------------|
D|---------------------------------------------------------------------------|
A|---------------------------------------------------------------------------|
D|---------------------------------------------------------------------------|
   (Lead fades in)									

									(x4)
e|---------------------------------------------------------------------------|
B|---------------------------------------------------------------------------|
G|---------------------------------------------------------------------------|
D|---------------------------------------------------------------------------|
A|-0-0--0-0--0-00-0-00-0--0-0--0-0--0-00-0-00-0------------------------------|
D|-0-0--0-0--0-00-0-00-0--0-0--0-0--0-00-0-00-0------------------------------|
 PM|--------------------------------------------|


   Breakdown
e|---------------------------------------------------------------------------|
B|---------------------------------------------------------------------------|
G|---------------------------------------------------------------------------|
D|---------------------------------------------------------------------------|
A|-0-0--0-0--0-00-0-0~--0-0--0-0--0-00-0-0~--0-0--0-0--0-00-0-0~--0-0--0-0--0|
D|-0-0--0-0--0-00-0-0~--0-0--0-0--0-00-0-0~--0-0--0-0--0-00-0-0~--0-0--0-0--0|
   Will you be invited?          Your front row seat's at the end of the world!      

e|---------------------------------------------------------------------------|
B|---------------------------------------------------------------------------|
G|---------------------------------------------------------------------------|
D|--7p5--------5/7----7p5---------------7p5--------5/7---7p5-----------------|
A|-----8-7-8-7----8------8-7-8-7-5-3*------8-7-8-7----8-----8-7-8-7-5-3-0~---|
D|---------------------------------------------------------------------------|
     The end is near,        as we spin taking our last round.
 

Outro (Same as intro)



Enjoy! :D


************************************

| PM  Palm Mute
| /   slide up
| \   slide down
| h   hammer-on
| p   pull-off
| ~   vibrato
| *   pinch harmonic
| x   Mute note
| b   Bend
| pb  Pre-bend
| br  Bend release
| pbr Pre-bend release
| brb Bend release bend

************************************
Suggest correction
comments
print report bad tab
2 comments total.
0 reply
OMYGO$HIT$JOSH 201 wrote on February 24 2011, 08:58 pm

Thank You SOSOSOSO Muuch! ;D

0 reply
tylerthetugboat 228 wrote on February 27 2011, 02:49 pm

You're welcome!

guest
You may want to rate the tab now too:
select rating
Please do not post tabs as comments. Select "correction" instead!