Oops, an error
Loading. Please wait.

Walking On Gravestones bass

148 views 3 this week
no commentswrite comment
1 2 3 4 5
3 more votes to show rating
add to favorites
×
Save as Personal and add changes to this tab that will be seen only by you. Learn more ›
×
You can save this tab as Personal to edit and correct it or add notes. All changes will be seen only by you. Learn more »
launch autoscroll
font size
0
reset
guitar tuner
edit
Autoscroll
slow
fast
+/-
esc
set tempo
stop
I See Stars - Walking on Gravestones

Tabbed by: Ash (XxThreeCheersxX)
email: burdickash@gmail.com

Tuning: B E A D

Note: Unlike their other songs, this doesn't use the B string at all... so you can just play in standard 
if you want, just down a string.  i kept it in B tuning because all of their other songs are!

(intro - no bass)

D|-------------------------------------------------------------------------------------------------|
A|-------------------------3--3--3--3--3--3--3--3--------------------------------------------------|
E|-5--5--5--5--5--5--5--5--------------------------3--3--3--3--3--3--3--3--1--1--1--1--1--1--1--1--| x 3
B|-------------------------------------------------------------------------------------------------|

Come back in with the hand claps
D|-------------------------------------------------------------7----7----7----7----|
A|-3----3----3----3----5----5----5----5----8----8----8----8------------------------|
E|---------------------------------------------------------------------------------|
B|---------------------------------------------------------------------------------|

D|-----------------------------------------------------------7----7----7----7----|
A|-3----3----3----3----5----5----5----5-7-8-10-8---8----8------------------------|
E|-------------------------------------------------------------------------------|
B|-------------------------------------------------------------------------------|

D|-------------------------------------------------------------7----7----7----7----|
A|-3----3----3----3----5----5----5----5----8----8----8----8------------------------|
E|---------------------------------------------------------------------------------|  x 2
B|---------------------------------------------------------------------------------|

-another break-

D|-------------------------------------------------------------------------------------------------|
A|-------------------------3--3--3--3--3--3--3--3--------------------------------------------------|
E|-5--5--5--5--5--5--5--5--------------------------3--3--3--3--3--3--3--3--1--1--1--1--1--1--1--1--| x 4
B|-------------------------------------------------------------------------------------------------|


************************************

| x   Dead note
| g   Grace note
| (n) Ghost note
| h   Hammer-on
| p   Pull-off
| r   Release
| >   Accented note
| t   Tapping
| b   Bend
| br  Bend release
| pb  Pre-bend
| pbr Pre-bend release
| /   Slide up
| \   Slide down
| ~   Vibrato
| s   Slap
| P   Pop
| PM  Palm mute
| TR  Trill
| N   Tremolo

************************************

            
            
Suggest correction
Creating personal tab
Creating personal tab
You can edit any tab online and save it as your Personal.

You can edit, replace or remove any tab part or add personal notes – all changes will be seen only by you.

Personal tabs can be accessed anytime from any device, even offline.
Learn more »
Give kudos to tab author, rate the tab!
1 2 3 4 5
comments
print report bad tab
guest
You may want to rate the tab now too:
select rating
Wanna post a correction for this tab? Suggest correction