Oops, an error
Loading. Please wait.

Sex Ed Rocks Tab

version 1
version 1

Whole song

Interactive

45,159 views 15 this week
14 commentsread comments
1 2 3 4 5
accurate
x 12
add to favorites
launch autoscroll
font size
0
reset
how to read this tab
guitar tuner
Autoscroll
slow
fast
+/-
esc
set tempo
stop
Help us to improve Ultimate-Guitar.com Take our survey!
×
Author
-------------------------------------------------------------------------------
                             Sex Ed Rocks - I Set My Friends On Fire
-------------------------------------------------------------------------------
Tabbed by:Boxiii
Email:hobocloud@yahoo.com

Tuning:Drop D

I haven't got the second guitar for the first breakdown, I will add it later.

Intro
e|---------------------------------------------------------------------------|
B|----444---------4---------------444-------4444-----11----------------------|
G|----777---------7(x20)----------777-------7777---14--(x8)------------------|
D|00--------000---------7-3-8--00------000---------------------12-12-0-------|
A|00--------000---------7-3-8--00------000---------------------12-12-0-------|
D|00--------000---------7-3-8--00------000---------------------12-12-0-------|
  ..        ...                ..      ...

Verse
e|------------------------------------------------------------------------------|
B|------------------------------------------------------------------------------|
G|-----77------77-----------7\5-----5/7--77----------33----33-------------------|
D|0----xx--00--xx--00--0----x-x--0--x-x--xx-----0----xx-00-xx--0----------------|
A|0----55--00--55--00--0----5\3--0--3/5--55--1--0----11-00-11--01---------------|
D|0(x7)----00------00--0(x7)-----0-----------0--0(x7)---00-----00---------------|
  .        ..      .   .         .              .       ..     .

e|----------------------------------------------------|
B|----------------------------------------------------|
G|------10\9\7----7-/-9-/10-/12-----------------------|  (x2)
D|0------x\x\x----x-/-x-/-x-/-x-----------------------|
A|0------8\7\5----5-/-7-/-8-/10-----------------------|
D|0(x7)-----------------------------------------------|
  .

Chorus
e|------------------------------------|
B|------------------------------------|
G|---------5--------------------------|   (x4)
D|--3------5--------------------------|
A|--3------3(x16)---------------------|
D|--3(x16)----------------------------|


Verse                                               1st     2nd
e|-----------------------------------------------|------|----------------------|
B|-------------------------------6----6---6----6-|--666-|----------------------|
G|-----10-------------9----------9----9---9----9-|--999-|----------------------|
D|0-----x(x4)--0------x-------00---00---0---00---|00----|-0-7\-----------------|
A|0-----8------0------7(x4)---00---00---0---00---|00----|-0-7\-----------------|
D|0(x8)--------0(x8)----------00---00---0---00---|00----|-0-7\-----------------|
  .            .              ..   ..   .   ..    ..      .

                                                     end on
e|-------------------------------------------|---------------------------------|
B|---------------------------6----6---6---666|---------------------------------|
G|----14-------------12------9----9---9---999|(x2)-----------------------------|
D|0----x-(x4)--0------x---00---00---0---00---|-------8-7-----------------------|
A|0---12-------0-----10---00---00---0---00---|-------8-7---7*b-----------------|
D|0(x8)--------0(x8)------00---00---0---00---|-------8-7-----------------------|
  .            .          ..   ..   .   ..

Breakdown
e|-----------------------------------------------------------------------------|
B|-----------------------------------------------------------------------------|
G|-----------------------------------------------------------------------------|
D|0------(find pattern of mutes)-----------------------------------------------|
A|0----------------------------------------------------------------------------|
D|0----------------------------------------------------------------------------|
  .
e|-----------------------------------------------------------------------------|
B|-----------------------------------------------------------------------------|
G|-----------------------------------------------------------------------------|
D|10-10-10---12-12-12---14-14-14----12-12--10-10----9----10-10-10--9-9-9-------|
A|-x--x--x----x--x--x----x--x--x-----x--x---x--x----x-----x--x--x--x-x-x-------|
D|-8--8--8---10-10-10---12-12-12----10-10---8--8----7(x6)-8--8--8--7-7-7-------|


Chorus

Break Down 2
e|(8)----------------------------------------------------------------------|
B|(8)----------------------------------------------------------------------|
G|(8)-------------------------------------------2*-------------------------|
D|-----0------(find pattern of mutes)---100100-----------------------------|
A|-----0--------------------------------100100--------(this a few times)---|
D|-----0--------------------------------000000-----------------------------|
       .                                 .. ..


| b  Bend
| *  Pinch
| /  slide up
| \  slide down
| h  hammer-on
| p  pull-off
| ~  vibrato
| +  harmonic
| x  Mute note
===============================================================================
Suggest correction
comments
print report bad tab
14 comments total. Showing first comments.
+1 reply
1sheldon 45 wrote on December 6 2008, 01:42 pm

you should add some lyrics to the parts, makes it easier

+1 reply
shugo449 530 wrote on December 7 2008, 05:13 pm

this is right on except for the lead during the breakdown

+1 reply
GuitarsIsNeat 53 wrote on December 8 2008, 08:18 pm

chorus is wrong

guest
You may want to rate the tab now too:
select rating
Please do not post tabs as comments. Select "correction" instead!