Oops, an error
Loading. Please wait.

Things That Rhyme With Orange Bass Tab

version 2
version 2

Whole song

  • There's only one other tab for this song, and it w... Show more

Interactive

7 views 1 this week
no commentswrite comment
1 2 3 4 5
3 more votes to show rating
add to favorites
launch autoscroll
font size
0
reset
guitar tuner
Autoscroll
slow
fast
+/-
esc
set tempo
stop
Help us to improve Ultimate-Guitar.com Take our survey!
×
Author
Difficulty
Tuning
novice
C G C F A D
About this tab version
There's only one other tab for this song, and it was very wrong. some right notes but some wrong ones and very misheard timings. Also a part of the song was missing in the other tab. So a rewrite was necessary. Hopefully this version sounds correct. Was this info helpful? Yes No
[Intro]
F|---------------------------------------------------------------------------|
C|---------------------------------------------------------------------------|
G|---------------------------------------------------------------------------|
C|---999-999101010--101010777-777-777----------------------------------------| x2
(10's ^)

[Intro pt.2]
F|---------------------------------------------------------------------------|
C|---------------------------------------------------------------------------|
G|---------------------------------------------------------------------------|
C|---555-5555777-7777555-5555-555-5555---------------------------------------| x2


[Verse](hold notes)
F|---------------------------------------------------------------------------|
C|---------------------------------------------------------------------------|
G|---------------------------------------------------------------------------|
C|---99-99--00-00--55-55--55-55----------------------------------------------| x2


[Chorus]
F|---------------------------------------------------------------------------|
C|---------------------------------------------------------------------------|
G|---------------------------------------------------------------------------|
C|---0000000000000000 2222222222222222-5555555555555555-0000000000000000-----|

F|---------------------------------------------------------------------------|
C|---------------------------------------------------------------------------|
G|---------------------------------------------------------------------------|
C|---2222222222222222-0000000000000000--0------------------------------------|


[Verse 2]
F|---------------------------------------------------------------------------|
C|---------------------------------------------------------------------------|
G|---------------------------------------------------------------------------|
C|---9-9-9-9-9-9-9-9-0-0-0-0-0-0-0-0-5-5-5-5-5-5-5-5-5-5-5-5-5-5-5-5---------| x2


[Chorus]
F|---------------------------------------------------------------------------|
C|---------------------------------------------------------------------------|
G|---------------------------------------------------------------------------|
C|---0000000000000000 2222222222222222-5555555555555555-0000000000000000-----|

F|---------------------------------------------------------------------------|
C|---------------------------------------------------------------------------|
G|---------------------------------------------------------------------------|
C|---2222222222222222-0000000000000000--0------------------------------------|


[Thing in between Chorus and Breakdown]
F|---------------------------------------------------------------------------|
C|---------------------------------------------------------------------------|
G|---------------------------------------------------------------------------|
C|---000-000000--000--0-00---------------------------------------------------|


[Breakdown]
F|---------------------------------------------------------------------------|
C|---------------------------------------------------------------------------|
G|---------------------------------------------------------------------------|
C|---000--000000--0000--00000--000--000--00000-000-000--00000--0000-0000-----|


[Outro]
F|---------------------------------------------------------------------------|
C|---------------------------------------------------------------------------|
G|---------------------------------------------------------------------------|
C|---999-999-1010-101010-777-777-77-777--------------------------------------| x2
(10's ^)

[Chorus]
F|---------------------------------------------------------------------------|
C|---------------------------------------------------------------------------|
G|---------------------------------------------------------------------------|
C|---0000000000000000 2222222222222222-5555555555555555-0000000000000000-----|

F|---------------------------------------------------------------------------|
C|---------------------------------------------------------------------------|
G|---------------------------------------------------------------------------|
C|---2222222222222222-0000000000000000--0------------------------------------|
Suggest correction
Give kudos to tab author, rate the tab!
1 2 3 4 5
comments
print report bad tab
guest
You may want to rate the tab now too:
select rating
Wanna post a correction for this tab? Suggest correction