Oops, an error
Loading. Please wait.

Forgiven Tab

version 1
version 1

Whole song

Interactive

19,526 views 12 this week
3 commentsread comments
1 2 3 4 5
excellent!
x 6
add to favorites
launch autoscroll
font size
0
reset
how to read this tab
guitar tuner
Autoscroll
slow
fast
+/-
esc
set tempo
stop
Help us to improve Ultimate-Guitar.com Take our survey!
×
Author
Difficulty
Tuning
novice
C G C F A D
One guitar in the background:

D||---------------------------------||
A||---------------------------------||
F||o-------------------------------o|| 3x
C||o-------------------------------o||
G||----------5----------6--------3--||
C||--0000--00---0000--00---000-00---||
     ...   ..   ...   ..   ..  ..  

D---------------------------|
A---------------------------|
F---------------------------|
C---------------------------|
G---------5----------6--000-|
C-0000--00---0000--00---000-|
  ...   ..   ...   ..   ...

Both guitars:
D||----------------------------------||
A||----------------------------------||
F||o--------------------------------o|| 4x
C||o--------(7)--------(8)------(5)-o|| (one guitar plays top notes
G||----------5----------6--------3---||  on 3rd and 4th times)
C||--0000--00---0000--00---000-00----||
     ...   ..   ...   ..   ..  ..  

D||---------------------------------||
A||---------------------------------||
F||o-------------------------------o|| 2x
C||o-------------------------------o||
G||------------------------------3--||
C||--0000--000--0000--000--000-00---||
     ....  ...  ....  ...  ... ..

D||---------------------------------||
A||---------------------------------||
F||o-------------------------------o|| 2x
C||o-------------------------------o||
G||----------5----------6--------3--||
C||--0000--00---0000--00---000-00---||
     ...   ..   ...   ..   ..  ..  

D-----------------------------------------------------------\
A----------------------------------------------------------- \
F-----------------------------------------------------------  \
C-----------------------------------------------------------   \
G-----------------------------------------------------------    \
C-000~-000~-000~-000~-00000000-000~-000~-000~-000~-00000000-     \
  ..   ..   ..   ..   ........ ..   ..   ..   ..   ........       |
                                                                  |
D-----------------------------------------------------------     /
A-----------------------------------------------------------    /
F-7~---7~---7~---7~------------7~---7~---7~---7~------------   /
C-0~---0~---0~---0~------------0~---0~---0~---0~------------  /
G----------------------------------------------------------- /
C-----------------------------------------------------------/

D------------------------------------------------------\
A------------------------------------------------------ \
F------------------------------------------------------  \
C------------------------------------------------------   \
G--------------------------------------------------0---    \
C-000~-000~-000~-000~-00000000-000~-000~-000~-000~-0---     \
  ..   ..   ..   ..   ........ ..   ..   ..   ..   .         |
                                                             |
D------------------------------------------------------     /
A-4~---4~---4~---4~------------4~---4~---4~---4~---4---    /
F-7~---7~---7~---7~------------7~---7~---7~---7~---7---   /
C-0~---0~---0~---0~------------0~---0~---0~---0~---0---  /
G------------------------------------------------------ /
C------------------------------------------------------/

Both guitars:
D||-----------------------------------||
A||-----------------------------------||
F||o---------------------------------o||  4x
C||o-7-------------7---------------5-o||
G||------------8-------------8--------||
C||----008-3s5---0---008-3s5---5h7----||
       ..        .   ..

One guitar chugs the first triplet, other chugs the second:
D------------|
A------------|
F------------|
C-7----------|
G------------|
C---000-000--|
    ... ...

Both guitars:
D--------------------------------------------|
A--------------------------------------------|
F--------------------------------------------|
C-7-----------7---------7---------7----------|
G--------------------------------------------|
C---000-000-----000-000---000-000---000-000--|
    ... ...     ... ...   ... ...   ... ...

D---------------------------------------------|
A---------------------------------------------|
F---------------------------------------------|
C-5s7-----------7---------7---------7---------|
G---------------------------------------------|
C-----000-000-----000-000---000-000---000-000-|
      ... ...     ... ...   ... ...   ... ...

One guitar plays previous part again, other plays this:
D--------------------------------------------|
A--------------------------------------------|
F--------------------------------------------|
C-12----------12--------12--------12---------|
G--------------------------------------------|
C---000-000-----000-000---000-000---000-000--|
    ... ...     ... ...   ... ...   ... ...

D--------------------------------------------------|
A--------------------------------------------------|
F--------------------------------------------------|
C-10s12----------12--------12--------12----------5-|
G------------------------------------------8-------|
C------000-000-----000-000---000-000---000---5h7---|
       ... ...     ... ...   ... ...   ...

Both guitars:
D-------------------------------------------------|
A-------------------------------------------------|
F-------------------------------------------------|
C-------------------------------------------------|
G-8~------------------7-7-7-7-7-7-7-7-7-7-7-7-7---|
C-8~------------------8-8-8-8-8-8-8-8-8-8-8-8-8---|

Chorus lead:
  T                                        T
D-17-10h13p12------------------------------------|
A-------------10h13---------------13-13h15-18-15-|
F-------------------9h10-14p12h14----------------|
C------------------------------------------------|
G------------------------------------------------|
C------------------------------------------------|

Chorus chords:
D---------------------------------------------------------------------|
A---------------------------------------------------------------------|
F---------------------------------------------------------------------|
C---------------------------------------------------------------------|
G-0-0-0-0-0-0-0-0-0-0-0-0-10-10-10-10-8-8-8-8-8-8-8-8-8-8-8-8-3-3-3-3-|
C-0-0-0-0-0-0-0-0-0-0-0-0-10-10-10-10-8-8-8-8-8-8-8-8-8-8-8-8-3-3-3-3-|

D---------------------------------------------------------------------|
A---------------------------------------------------------------------|
F---------------------------------------------------------------------|
C---------------------------------------------------------------------|
G-0-0-0-0-0-0-0-0-0-0-0-0-10-10-10-10-8-8-8-8-8-8-8-8-----4-4-----7-7-|
C-0-0-0-0-0-0-0-0-0-0-0-0-10-10-10-10-8-8-8-8-8-8-8-8-3-3-----7-7-----|

One guitar:
D---------------------------------|
A---------------------------------|
F-7p0h7p0h7p0h8p0h8p0h8p0h8p0h8p0-|
C---------------------------------|
G---------------------------------|
C---------------------------------|

Breakdown lead (3x):
D--------------------------------------------------------------------|
A--------------------------------------------------------------------|
F-7p0h7p0h7p0h8p0h8p0h8p0h8p0h8p0h7p0h7p0h7p0h8p0h8p0h11p0h11p0h11p0-|
C--------------------------------------------------------------------|
G--------------------------------------------------------------------|
C--------------------------------------------------------------------|
 End breakdown lead:
D---------------------------------|
A---------------------------------|
F-7p0h7p0h7p0h8p0h8p0h8p0h8p0h8p0-
C---------------------------------|
G---------------------------------|
C---------------------------------|


Breakdown chugs:
D---------------------------------------------|
A---------------------------------------------|
F---------------------------------------------|
C---------------------------------------------|
G-0--0-0-0--0-0-0------0--0-0-0----0----0-0-0-|
C-0--0-0-0--0-0-0--00000--0-0-0--000--000-0-0-|
  .  . . .  . . .  .....  . . .  ...  ... . .

D--------------------------------------------------------|
A--------------------------------------------------------|
F--------------------------------------------------------|
C--------------------------------------------------------|
G-0--0-0-0--0-0-0-----0-0-0-0--0-0-0----0-0-0-----0--0-0-|
C-0--0-0-0--0-0-0--0000-0-0-0--0-0-0--000-0-0--0000--0-0-|
  .  . . .  . . .  .... . . .  . . .  ... . .  ....  . .

Both guitars:
D----------------------------------------------|
A----------------------------------------------|
F----------------------------------------------|
C----------------------------------------------|
G-0~-0-0-0~-0-0-0~-----0~-0-0-0~---0~---0-0-0~-|
C-0~-0-0-0~-0-0-0~-00000~-0-0-0~-000~-000-0-0~-|
  .  . . .  . . .  .....  . . .  ...  ... . .

D--------------------------------------------------------|
A--------------------------------------------------------|
F--------------------------------------------------------|
C--------------------------------------------------------|
G-0~-0-0-0~-0-0-0~----0-0-0-0--0-0-0----0-0-0-----0--0-0-|
C-0~-0-0-0~-0-0-0~-0000-0-0-0--0-0-0--000-0-0--0000--0-0-|
  .  . . .  . . .  .... . . .  . . .  ... . .  ....

Both guitars:
D--------------------------------------------|
A--------------------------------------------|
F--------------------------------------------|
C-12---10h13---12---10h13----------------8p7-|
G-------------------------------8h12-7h8-----|
C----0-------0----0-------0-7s8--------------|
     .       .    .       .

D---------------------------------------------|
A---------------------------------------------|
F---------------------------------------------|
C-12---10h13---12---10h13-------------------7-|
G---------------------------12----------7h8---|
C----0-------0----0-------0----10-0-7h8-------|
     .       .    .       .

Breakdown lead: 2x
D---------------------------------------------|
A---------------------------------------------|
F---------------------------12----------------|
C-12-0-10-13-0-12-0-10-13-0----13-12-10-12-13-|
G---------------------------------------------|
C---------------------------------------------|

D---------------------------11----------------|
A------------------------------13----------13-|
F---------------------------------11----11----|
C-12-0-10-13-0-12-0-10-13-0----------13-------|
G---------------------------------------------|
C---------------------------------------------|

Breakdown chugs: 4x
D--------------------------------|
A--------------------------------|
F--------------------------------|
C--------------------------------|
G--------------------------------|
C-0000--000--0000--000--00000000-|
  ....  ...  ....  ...  ........

One guitar plays chugs, other plays top notes:
D------||---------------------------------||
A------||----4-----4----4-----4----4---4--||
F------||o-7-----7----7-----7----7---7---o||
C------||o-------------------------------o||
G------||--0000--000--0000--000--000-000--||
C-0000-||--1111--111--1111--111--111-111--||
  ....     ...   ..   ...   ..   ..  ..

Both guitars: 3x
D-------------------------------|
A-------------------------------|
F-------------------------------|
C-------------------------------|
G---------5----------6--------3-|
C-0000--00---0000--00---000-00--|
  ...   ..   ...   ..   ..  ..

D--------------------------------|
A--------------------------------|
F--------------------------------|
C--------------------------------|
G---------5--------5-----------3-|
C-0000--00---0000----8-7-0-3-5---|
  ...   ..   ...

Both guitars:
D-----------------------------|
A-----------------------------|
F-----------------------------|
C-----------------------------|
G-8-8-8-8-8-8-8-8-7-7-7-7-7---|
C-8-8-8-8-8-8-8-8-8-8-8-8-8---|
  . . . . . . . . . . . . .

Chorus lead: 8x
  T                                        T
D-17-10h13p12------------------------------------|
A-------------10h13---------------13-13h15-18-15-|
F-------------------9h10-14p12h14----------------|
C------------------------------------------------|
G------------------------------------------------|
C------------------------------------------------|

Chorus chords: 4x
D---------------------------------------------------------------------|
A---------------------------------------------------------------------|
F---------------------------------------------------------------------|
C---------------------------------------------------------------------|
G-0-0-0-0-0-0-0-0-0-0-0-0-10-10-10-10-8-8-8-8-8-8-8-8-8-8-8-8-3-3-3-3-|
C-0-0-0-0-0-0-0-0-0-0-0-0-10-10-10-10-8-8-8-8-8-8-8-8-8-8-8-8-3-3-3-3-|

D---------------------------------------------------------------------|
A---------------------------------------------------------------------|
F---------------------------------------------------------------------|
C---------------------------------------------------------------------|
G-0-0-0-0-0-0-0-0-0-0-0-0-10-10-10-10-8-8-8-8-8-8-8-8-----4-4-----7-7-|
C-0-0-0-0-0-0-0-0-0-0-0-0-10-10-10-10-8-8-8-8-8-8-8-8-3-3-----7-7-----|
Suggest correction
comments
print report bad tab
3 comments total.
0 reply
screamokid2k 31 wrote on January 30 2011, 10:37 am

great tab
much better than the guitar pro version someone did

the only thing i think i would change would be the chorus lead to this because i find it much easier to play:
and yes that is a tapped slide on the F

T T T T
D-17p10h13-----------------------------10h13p10--|
A----------17p10h13------------------------------|
F-------------------9h10-14p12h14/17-------------|
C------------------------------------------------|
G------------------------------------------------|
C------------------------------------------------|

0 reply
screamokid2k 31 wrote on January 30 2011, 10:40 am

the tab kinda got messed up in the last one
its supposed to be
tap the 17s on the D and A
and tap the 14 and the 14 slide 17 on the G

0 reply
zukdogg.jz 10 wrote on March 25 2016, 07:22 am

What's the tuning? Drop d?

guest
You may want to rate the tab now too:
select rating
Please do not post tabs as comments. Select "correction" instead!