Oops, an error
Loading. Please wait.

Technicolor Tab

799 views 3 this week
1 commentread comment
1 2 3 4 5
please rate
add to favorites
launch autoscroll
font size
0
reset
how to read this tab
guitar tuner
Autoscroll
slow
fast
+/-
esc
set tempo
stop
Help us to improve Ultimate-Guitar.com Take our survey!
×
Author
Tuning
D# G# C# F# A# D#
Key of Bb minor (solo on that because I don't know the solo)
Rhythm Guitar
Verses: I'm just adding the notes you need to find the rhythm yourself
|----------------7---|
|--7---7-5----7--8---|
|--7---6-6----7--9---|
|--9---7-7----9--9---|
|--------------------|
|--------------------|

Chorus:
|--5--6--7--5--3--7--7----|
|--7--7--7--5--3--8--7----|
|--7--7--7--6--4--9--7----|
|--7--6--9--7--5--9--9--8-|
|--5-----9--7--5--7--9--9-|
|--------7--5--3-----7--6-|

Another verse
Another chorus (hold the last chord for another measure)

Bridge:"then you said"
|--3---7--------------|
|--3---8--------------|
|--4---9--------------| (x2)
|--5---9--------------|
|--5---7--------------|
|--3------------------|

Solo:
|--------------------------------|---------------------|
|--------------------------------|---------------------|
|--------------------------------|---------------------|(x2)
|--------------------------------|-------------------4-|
|--------------------------------|-------------------4-|
|-7///-5h7p5h7\10///2-0h2p0h2\\5-|-7///-5h7p5h7\10///2-|

Rest of song:
|--3---7--------------|
|--3---8--------------|
|--4---9--------------|
|--5---9--------------|
|--5---7--------------|
|--3------------------|

Lead: First Verse
|-------------------|
|--12--12-----------|
|----11-------------|
|-------------------|
|-------------------|
|-------------------|

Chorus:              "the neighbors watched"
|-------------------|-------------------------------------------------------|
|--5-7-10-11-14-19--|----7---7--------------------------------12-14h15p14-12|
|-7-----------------|---7-7-7-7--------------------------11-14--------------|
|-------------------|--9---7-----------11-12-11--------12-------------------|
|-------------------|----------10-12-14--------14-12-14---------------------|
|-------------------|-------------------------------------------------------|

|-------------------|
|--8p7\\\\11--------|
|-------------------|
|-------------------|
|-------------------|
|-------------------|
Verse2:
|----14-----------|
|--12--15-17------|
|14---------------|
|-----------------|
|-----------------|
|-----------------|

Another chorus

Bridge: "then you said"
|---2----0------------|
|---3----0------------|
|---4----0------------|(x2)
|---5----0------------|
|---------------------|
|---------------------|

Solo: Bb minor

Rest of song:
with a lot of feed back
|-----------------|
|--12~~~~~~~~-----|
|-----------------|
|-----------------|
|-----------------|
|-----------------|
Suggest correction
What's this?
You can suggest a correction to this tab. Community and Mods will review your correction and vote to approve or reject it.
comments
We did not receive enough feedback on this tab! Please rate:
print report bad tab
1 2 3 4 5
1 comment total.
0 reply
Brokerkid 14 wrote on April 12 2015, 09:55 pm

hell yeah homie

guest
You may want to rate the tab now too:
select rating
Please do not post tabs as comments. Select "correction" instead!