Oops, an error
Loading. Please wait.

The Dreamer Tab

9,655 views 21 this week
8 commentsread comments
1 2 3 4 5
excellent!
x 7
add to favorites
launch autoscroll
font size
0
reset
how to read this tab
guitar tuner
Tab Pro tools
  • play this tab
  • loop segment
  • change instrument
  • show fretboard
  • metronome
×
Best way to learn
"The Dreamer"
Autoscroll
slow
fast
+/-
esc
set tempo
stop
Contributor
Tuning
D# G# C# F# A# D#
Its mostly rhythm guitar because its all by ear you can do your own variations of 
the chords whatever works for you.


First Part:
Eb|-------------------|
Bb|--5----------------|
Gb|---5-4-5-----------|
Db|-------------------|
Ab|-------------------|
Eb|-------------------|

When the Music starts:
     Am    G
Eb|---5----3------------|   
Bb|---5----3------------|
Gb|---5----4------------|(x2)
Db|---7----5------------|
Ab|---7----5------------|
Eb|---5----3------------|

Verse:
Eb|--------------------------|
Bb|-----0------------0-------|
Gb|-------5-(x4)-------5-(x4)|
Db|---7------------5---------|
Ab|--------------------------|
Eb|--------------------------|

Pre-chorus:
      Am    Em     C    G
Eb|----------------------------------|
Bb|----------------------------------|
Gb|----------------------------------|
Db|-----7-----5------5---------------|
Ab|---------7---7\\3---3---5---------|
Eb|---5---5--------------3---3-------|
      Am     Em     C    G
Eb|----------------------------------|
Bb|----------------------------------|
Gb|----------------------------------|
Db|-----7-----5------5---------------|
Ab|---------7---7\\5---5-------------|
Eb|---5---5--------------3-5-3-------|
       Am    Em     C     G
Eb|----------------------------------|
Bb|----------------------------------|
Gb|----------------------------------|
Db|-----7-----5------5---------------|
Ab|---------7---7\\3---3---5---------|
Eb|---5---5--------------3---3-------|

"Can't you feel the earthquake comin' on?"
      F     Em
Eb|--(1)---(0)-------------------------|
Bb|--(1)---(0)-------------------------|
Gb|--(2)---(1)-------------------------|
Db|---3-----2--------------------------|
Ab|---3-----2--------------------------|
Eb|---1-----0--------------------------|

Chorus:
     F   E7   Am  G
Eb|--1----0---5---3---|
Bb|--1----3---5---3---|
Gb|--2----1---5---4---|
Db|--3----2---7---5---|
Ab|--3----2---7---5---|
Eb|--1----0---5---3---|

"You sew....'cause there's no way..."
     F    E7  Dm  E7
Eb|--1----0---5------|
Bb|--1----3---6---5---|
Gb|--2----1---7---7---|
Db|--3----2---7---6---|
Ab|--3----2---5---7---|
Eb|--1----0---------|

Verse two is the same as the first except no pre-chorus
You can play these chords over the top with the rhythm 
      Am   G
Eb|---5----3------------|   
Bb|---5----3------------|
Gb|---5----4------------|
Db|---7----5------------|
Ab|---7----5------------|
Eb|---5----3------------|

Chorus:
     F    E7  Am  G
Eb|--1----0---5---3---|
Bb|--1----3---5---3---|
Gb|--2----1---5---4---|
Db|--3----2---7---5---|
Ab|--3----2---7---5---|
Eb|--1----0---5---3---|

"You sew....'cause there's no way..."
     F    E7  Dm  E7     E7
Eb|--1----0---5---0------------|
Bb|--1----3---6---3------5-----|
Gb|--2----1---7---1-(x2)-7-(x2)|
Db|--3----2---7---2------6-----|
Ab|--3----2---5---2------7-----|
Eb|--1----0-------0------------|

Bridge:
Eb|----------------------------------|
Bb|----------------------------------|
Gb|----9---4---5---5-----------------|
Db|---7-7-3-3-2-2-2-2--(x4)----------|
Ab|--8---5---0-----------------------|
Eb|--------------3-------------------|
You can play these chords instead of ^that 
and during "You're not alone..." part
    F   Dm  Am  G
Eb|-1---5---5---3--|
Bb|-1---6---5---3--|
Gb|-2---7---5---4--|
Db|-3---7---7---5--|
Ab|-3---5---7---5--|
Eb|-1---x---5---3--|
"'cause she sleeps in fear"
     F5  D5  A5  G5
Eb|-----------------|                            |--------------|
Bb|-----------------|                            |--------------|
Gb|------7----------|                            |--------------|
Db|--3---7---7---5--|theres a riff that goes like|------5p3p2---|
Ab|--3---5---7---5--|during the transition of    |-----3-----5p3|
Eb|--1-------5---3--|repeating the chords the 2nd|--3h5---------|
"A lie......"        time
      G     G#m
Eb|---3-----4---------|
Bb|---3-----4---------|
Gb|---4-----4---------|
Db|---5-----6---------|
Ab|---5-----6---------|
Eb|---3-----4---------|

Chorus:
     F    E7  Am  G
Eb|--1----0---5---3---|
Bb|--1----3---5---3---|
Gb|--2----1---5---4---|
Db|--3----2---7---5---|
Ab|--3----2---7---5---|
Eb|--1----0---5---3---|

"You sew....'cause there's no way..."
     F    E7  Dm    E7     E7
Eb|--1----0---5---{-0------------}
Bb|--1----3---6---{-3------5-----}
Gb|--2----1---7---{-1-(x2)-7-(x2)}{x2}
Db|--3----2---7---{-2------6-----}
Ab|--3----2---5---{-2------7-----}
Eb|--1----0-------{-0------------}
comments
print report bad tab
8 comments total. Showing first comments.
+1 reply
jringo13 wrote on October 12 2012, 09:30 pm

Sick job dude! Truely! Thank you!
I will be a bro and tab out some from I the Mighty's Acoustic EP and together we can get their entire discography on here!
5 stars.

+1 reply
A_Sera wrote on July 28 2013, 12:38 pm

The pre-chorus is close, but wrong.


Eb|----------------------------------|
Bb|----------------------------------|
Gb|----------------------------------|
Db|-----7-----5------5---------------|
Ab|---------7---7\\3---3---5---------|
Eb|---5---5--------------3---3-------|
Am Em C G
Eb|----------------------------------|
Bb|----------------------------------|
Gb|------------------5---------------|
Db|-----7-----5----5---5--5-5--------|
Ab|---------7---7--------5-3---------|
Eb|---5---5--------------------------|
Am Em C G
Eb|----------------------------------|
Bb|----------------------------------|
Gb|----------------------------------|
Db|-----7-----5------5---------------|
Ab|---------7---7\\3---3---5---------|
Eb|---5---5--------------3---3-------|


Also, the Am in the chorus is wrong, but I can't put my finger on what the actual chord is.

Minor detail, but the last chord of the pre-chorus (Em) is actually E major.

0 reply
A_Sera wrote on July 28 2013, 12:38 pm

The pre-chorus is close, but wrong.


Eb|----------------------------------|
Bb|----------------------------------|
Gb|----------------------------------|
Db|-----7-----5------5---------------|
Ab|---------7---7\\3---3---5---------|
Eb|---5---5--------------3---3-------|
Am Em C G
Eb|----------------------------------|
Bb|----------------------------------|
Gb|------------------5---------------|
Db|-----7-----5----5---5--5-5--------|
Ab|---------7---7--------5-3---------|
Eb|---5---5--------------------------|
Am Em C G
Eb|----------------------------------|
Bb|----------------------------------|
Gb|----------------------------------|
Db|-----7-----5------5---------------|
Ab|---------7---7\\3---3---5---------|
Eb|---5---5--------------3---3-------|


Also, the Am in the chorus is wrong, but I can't put my finger on what the actual chord is.

Minor detail, but the last chord of the pre-chorus (Em) is actually E major.

I want to post or [tab]
guest
You may want to rate the tab now too:
select rating
Please do not post tabs as comments. Select "correction" instead!