Oops, an error
Loading. Please wait.

Where Are We Going To Bass Tab

208 views 1 this week
no commentswrite comment
1 2 3 4 5
please rate
add to favorites
launch autoscroll
font size
0
reset
guitar tuner
Autoscroll
slow
fast
+/-
esc
set tempo
stop
Help us to improve Ultimate-Guitar.com Take our survey!
×
Difficulty
intermediate
This is not in order, but the structure is fairly simple. You should be able to figure 
out.

Intro pt1:
G-----------------------------------------------|
D--5-4h5p4-------5-4h5p4-------5-4h5p4----------|
A----------5-3~----------5-3~----------5-3~-----|
E-----------------------------------------------|X2

Intro pt2/pre-verse:
G----------------------------------------|
D----------------------------------------|
A-------0-2-3/5-55-0-5-6-7-77-0-2-3~-3230|
E--3--3----------------------------------|

G-----------------------------------|
D--------------7p5-------------2----|
A-------0-2-3/5---5-7-77-0-2-3---5-0|
E--3--3-----------------------------|

Verse:
G---------------------------------------|
D---------------------------------------|
A-------0-2-3/5-55-0-5-6-7-77-0-2-3-3230|
E--3--3---------------------------------|

G----------------------------------7h9-7------|
D----------------5p4----------9h10------5h7-5\|
A-------0-2-3/5-5---5-7-7-9h10----------------|
E--3--3---------------------------------------|

G---------------------------------------|
D---------------------------------------|
A-------0-2-3/5-55-0-5-6-7-77-0-2-3-3230|
E--3--3---------------------------------|

G-------------------------------------|
D----------------5p4------------------|
A-------0-2-3/5-5---5-7-77-0-2-3/7p5--|
E--3--3------------------------------2|

Chorus/Guitar solo:
G---------------------------------------------|
D---------------------------------------------|
A-------------5-55555555-7-77777777-3-33333333|
E--3-33333333---------------------------------|

G---------------------------|
D---------------------------|
A--77-55-33-0~--77-55-33-0~-|
E---------------------------|


And that's it. Like I said, the order is self explanatory.
Suggest correction
Give kudos to tab author, rate the tab!
1 2 3 4 5
comments
print report bad tab
guest
You may want to rate the tab now too:
select rating
Wanna post a correction for this tab? Suggest correction