Oops, an error
Loading. Please wait.

Twelve intro tab

version 1
version 1

Intro

Whole song

504 views 3 this week
1 commentread comment
1 2 3 4 5
3 more votes to show rating
add to favorites
×
Save as Personal and add changes to this tab that will be seen only by you. Learn more ›
×
You can save this tab as Personal to edit and correct it or add notes. All changes will be seen only by you. Learn more »
launch autoscroll
font size
0
reset
how to read this tab
guitar tuner
edit
Autoscroll
slow
fast
+/-
esc
set tempo
stop
Author
Difficulty
-------------------------------------------------------------------------------
                Twelve – I Would Set Myself On Fire For You
-------------------------------------------------------------------------------
Tabbed by: Nancy
Email: nancegotpants@yahoo.com
Tuning: EADGBE

Alright, so one day I figured that I Would Set. was such a good band and no one ever
their songs. Well, I can understand that it’s very difficult but still, it’s possible. I
do the whole song because, as I said before, it’s very difficult to tab. But if anyone 
this song/any other songs by this band, please post them, they’re so good. I only have
introduction to this but oh well, it’s such a good song. If you are able to tab the rest 
the song, just email it to me and I’ll add the additional sections to this tab. Thanks :).

e|-5~--5-6-8-6-5-------------------------------------------------------------|
B|-6~------------7-5---------6-6-6—-5~--5h6-5--------------------5---6-------|
G|-7~----------------7-5-----7-7-7—-5~--------5---4-5-7-5-4------------------|
D|-7~--------------------7~---------------------7-----------6~-6---7---7-----|
A|---------------------------------------------------------------------------|
E|---------------------------------------------------------------------------|

You repeat that maybe like twice and then you go into some other kind of strumming that
not too sure about. I didn't bother to indicate the timing on this so you'll have to
to the song to figure it out yourself. Well, if you have any additions/corrections you 
to contribute, feel free to email me or send me a pm.

I would set myself on fire for you = <3

            
            
Suggest correction
Creating personal tab
Creating personal tab
You can edit any tab online and save it as your Personal.

You can edit, replace or remove any tab part or add personal notes – all changes will be seen only by you.

Personal tabs can be accessed anytime from any device, even offline.
Learn more »
Give kudos to tab author, rate the tab!
1 2 3 4 5
comments
print report bad tab
1 comment total.
0 reply
tiru2wtf 10 Jun 05, 2007 01:00 PM

e|-5~--5-6-8-6-5--------------
B|-6~------------6-5----------
G|-7~----------------7-5------
D|-7~--------------------7~---
A|----------------------------
E|----------------------------

correction ;D

guest
You may want to rate the tab now too:
select rating
Wanna post a correction for this tab? Suggest correction