Oops, an error
Loading. Please wait.

President Tab

by IAMX
4,385 views 6 this week
1 commentread comment
1 2 3 4 5
excellent!
x 4
add to favorites
launch autoscroll
font size
0
reset
how to read this tab
guitar tuner
Tab Pro tools
  • play this tab
  • loop segment
  • change instrument
  • show fretboard
  • metronome
×
Best way to learn
"President"
Autoscroll
slow
fast
+/-
esc
set tempo
stop
Contributor
IAMX - President

3/4-time

Chords used:
Verse:  dm (x 5 7 7 6 5)
        Bb (6 8 8 7 6 6)
        gm (3 5 5 3 3 3)
        A  (5 7 7 6 5 5)
Chorus: F  (1 3 3 2 1 1)
        A  (x 0 2 2 2 0)
        dm (x 5 7 7 6 5)
        Bb (6 8 8 7 6 6)


This is my suggestion. I think it sounds great this way:

Intro & Verse:

           dm       
E||-----------5--------|----------5----------||
B||--------6-----6-----|-------6-----6-------||
G||-----7-----------7--|-----7----------7----||  2x
D||--------------------|--7------------------||
A||--5-----------------|---------------------||
E||--------------------|---------------------||

           Bb
E||-----------6--------|----------6----------||
B||--------6-----6-----|-------6-----6-------||
G||-----7-----------7--|-----7----------7----||  2x
D||--------------------|--8------------------||
A||--------------------|---------------------||
E||--6-----------------|---------------------||

           gm
E||-----------3--------|----------3----------||
B||--------3-----3-----|-------3-----3-------||
G||-----3-----------3--|-----3----------3----||  2x
D||--------------------|--5------------------||
A||--------------------|---------------------||
E||--3-----------------|---------------------||

           A
E||-----------5--------|----------5----------||
B||--------5-----5-----|-------5-----5-------||
G||-----6-----------6--|-----6----------6----||  2x
D||--------------------|--7------------------||
A||--------------------|---------------------||
E||--5-----------------|---------------------||


Chorus:

             F
E||-----------1--------|----------1----------||
B||--------1-----1-----|-------1-----1-------||
G||-----2-----------2--|-----2----------2----||  2x
D||--------------------|--3------------------||
A||--------------------|---------------------||
E||--1-----------------|---------------------||

             A
E||-----------0--------|----------0----------||
B||--------2-----2-----|-------2-----2-------||
G||-----2-----------2--|-----2----------2----||  2x
D||--------------------|--2------------------||
A||--0-----------------|---------------------||
E||--------------------|---------------------||

            dm
E||--------------------|---------------------||
B||-----------6--------|----------6----------||
G||--------7-----7-----|-------7------7------||  2x
D||-----7-----------7--|-----7------------7--||
A||--5-----------------|--5------------------||
E||--------------------|---------------------||

           Bb
E||--------------------|---------------------||
B||-----------6--------|----------6----------||
G||--------7-----7-----|-------7------7------||  2x
D||-----8-----------8--|-----8------------8--||
A||--------------------|--8------------------||
E||--6-----------------|---------------------||


Verse1:

dm              Bb
  They pull our strings 
      gm
  The animals 
      A
  They blind, they breed the hate 
dm            Bb
  Under their wing 
        gm
  We're scientists 
     A
  We swallow what they think 

Chorus:

F             A
  For all you lonely boys 
dm          Bb
  I will be president 
F            A
  In all you sons of men 
dm         Bb
  I can be accident 


Verse2:

dm             Bb
  Most fall in line 
       gm
  They do the dance 
         A
  And salute the safest thing 
dm                  Bb
  Bought with their lives 
          gm
  Cry and socialize 
             A
  And throw all the beauty away 


Chorus:

F             A
  For all you lonely boys 
dm          Bb
  I will be president 
F            A
  In all you sons of men 
dm         Bb
  I can be accident 
comments
print report bad tab
1 comment total.
0 reply
pres0808 wrote on January 6 2016, 07:19 am

just great
both the tab and the song are fantastic

I want to post or [tab]
guest
You may want to rate the tab now too:
select rating
Please do not post tabs as comments. Select "correction" instead!