Oops, an error
Loading. Please wait.

Getting High Tab

1,431 views 1 this week
1 commentread comment
1 2 3 4 5
please rate
add to favorites
launch autoscroll
font size
0
reset
how to read this tab
guitar tuner
Autoscroll
slow
fast
+/-
esc
set tempo
stop
Help us to improve Ultimate-Guitar.com Take our survey!
×
Author
Difficulty
Getting High
Ian Brown

Intro - ad lib around b pentatonic (7th fret)


main riff/ verse

E-----------------|-----------------|-----------------|-----------------|
B-----------------|-----------------|-----------------|-----------------|
G-----------------|-----------------|-----------------|-10-10-10--8-8-8-|
D-10-10-10-10-10--|-10-10-10-10-10--|-------1---------|-10-10-10--8-8-8-|
A-10-10-10-10-10--|-10-10-10-10-10--|---1-3---3-1-3-3-|-8--8--8---6-8-8-|
E-8--8--8--8--8---|-8--8--8--8--8---|-3---------------|-----------------| 


repeat riff untill he sings "getting high" then do this once, then back to riff


E-----------------|-----------------|-----------------|-----------------|
B-----------------|-----------------|-----------------|-----------------|
G-----------------|-----------------|-----------------|-----------------|
D--6-6-6----------|-8-8-8-8-8-8-8---|-----------------|-----------------|
A--6-6-6----------|-8-8-8-8-8-8-8---|-----------------|-----------------|
E--4-4-4----------|-6-6-6-6-6-6-6---|-----------------|-----------------|





Suggest correction
Give kudos to tab author, rate the tab!
1 2 3 4 5
comments
print report bad tab
1 comment total.
+1 reply
shaggy-mess 51 wrote on March 28 2011, 01:26 pm

E---------------|----------------|---------------|---------------|
B---------------|----------------|---------------|---------------|
G-5--3--5--5----|-5--5--3--5--5--|---------------|-5--5--3-3--3--|
D-5--3--5--5----|-5--5--3--5--5--|-----1---------|-5--5--3-3--3--|
A-3--3--3--3----|-3--3--3--3--3--|-1-3---3-1-3-3-|-3--3--1-1--1--|
E---------------|----------------|---------------|---------------|
C5 C5 C5 Bb5

Then repeat. You got the getting high bit right. just after the Bb5 of the
chorus back to the riff above.

E---------------|----------------|
B---------------|----------------|
G---------------|----------------|
D--6-----6------|-8-8-8-8-8-8-8--|
A--6-----6------|-8-8-8-8-8-8-8--|
E--4-----4------|-6-6-6-6-6-6-6--|
Ab5 Bb5

guest
You may want to rate the tab now too:
select rating
Please do not post tabs as comments. Select "correction" instead!