Oops, an error
Loading. Please wait.

Hit Me With Your Rhythm Stick bass

version 3
version 3

Whole song

Interactive

367 views 1 this week
no commentswrite comment
1 2 3 4 5
3 more votes to show rating
add to favorites
×
Save as Personal and add changes to this tab that will be seen only by you. Learn more ›
×
You can save this tab as Personal to edit and correct it or add notes. All changes will be seen only by you. Learn more »
launch autoscroll
font size
0
reset
guitar tuner
edit
Autoscroll
slow
fast
+/-
esc
set tempo
stop
Author
Difficulty
First upload
Credit to metalman135 for the excellent original tab which this is heavily based on.
I've added bar lines and cleaned it up a bit for my own benefit and changed a few notes to fit this version:
https://youtu.be/eFw6EMOdVoU
which I am learning from, so I'm sharing the result.
Corrections welcome.


Intro
G------------|----------|----------|-------------|
D----3--1-1--|----------|----------|-------------|
A------------|3-3--1-1--|3-3--1-1--|3--1---------|
E-1----------|----------|----------|------4-1----|

                                   |1st repeat:
G------------|---------|-------8-8-|-------------|
D----3--1-1--|---------|-----6-----|-------------|
A------------|3-3--1-1-|3-6-8------|-1-1---3-3---|
E------------|---------|-----------|-------------|
                                    2nd repeat: go to verse


Verse
G|--10-8-8-------|---------------|----------|--------|--------|-------|
D|---------10-10-|8-8-6-6-----5-5|--6-6-----|--------|--------|6------|
A|8--------------|--------8-8----|------8-8-|6-6-----|6-6-8-8-|--8-6-4|
E|---------------|---------------|----------|----8-8-|--------|-------|

|----4---|3-3----|---------|---------|
|--6---6-|----6--|-3---5---|6-6------|
|--------|------4|---4---4-|---------|
|--------|-------|---------|---------|

1st repeat
|--10-8-8-------|------------------|
|---------10-10-|8-8-6-6-----------|
|8--------------|--------8-8-6---6-|
|---------------|--------------8---|

2nd repeat to chorus          
G---------|--------|--------|------|
D---------|--------|--------|------|
A-6-6-6-6-|6-6-6-6-|6---5-6-|7~----|
E---------|--------|--8-----|------|

Chorus

|---------------------------------------------| x2
|------3-------5------7-----5-----------------|
|---------------------------------------------|
|--1-1----3-3-----5-5----3-3-----1-1--1-1-----|

G--------------------------------------------------------------------------------------|
D------3-------5------6------7------8------7------6------5-----------------------------|
A------------------------------------------------------------------1-1---3-3-----------|
E--1-1----3-3----4-4----5-5----6-6----5-5----4-4----3-3--------------------------------|

Repeat from intro

            
            
Suggest correction
Creating personal tab
Creating personal tab
You can edit any tab online and save it as your Personal.

You can edit, replace or remove any tab part or add personal notes – all changes will be seen only by you.

Personal tabs can be accessed anytime from any device, even offline.
Learn more »
Give kudos to tab author, rate the tab!
1 2 3 4 5
comments
print report bad tab
guest
You may want to rate the tab now too:
select rating
Wanna post a correction for this tab? Suggest correction