Oops, an error
Loading. Please wait.

Akoy Sa Iyo Ikay Akin tab

version 5
version 5

Whole song

by Iaxe
1,367 views 21 this week
no commentswrite comment
1 2 3 4 5
3 more votes to show rating
add to favorites
×
Save as Personal and add changes to this tab that will be seen only by you. Learn more ›
×
You can save this tab as Personal to edit and correct it or add notes. All changes will be seen only by you. Learn more »
launch autoscroll
font size
0
reset
how to read this tab
guitar tuner
edit
Autoscroll
slow
fast
+/-
esc
set tempo
stop
Author
Difficulty
About this tab version
This is high quality fingerstyle tab and I have supporting video tutorial as shown in the youtube link. Was this info helpful? Yes No
Ako'y Sa'yo Ika'y Akin  by IAxe

Tabs written and arranged by Edwin-E (in YouTube)
Video Tutorial: http://www.youtube.com/watch?v=TQQqaKZNOTM
Blog: http://guitarplucking.blogspot.com
Facebook Page: EGuitar

Intro:
AM7 Bm7 C#m7 - D - Dm
E|--------------------4-----------------2--------1--------|
B|-----------2--3--5-----5-----------3-----3--------3-----|
G|--------1-----------------4-----2-----------2--------2--|
D|-----2-----------------------0-----------------0--------|
A|--0-----------2--4--------------------------------------|
E|--------------------------------------------------------|

AM7 Bm7 C#m7 - D - Dm
E|--------------------4-----------------2--------1--------|
B|-----------2--3--5-----5-----------3-----3--------3-----|
G|--------1-----------------4-----2-----------2--------2--|
D|-----2-----------------------0-----------------0--------|
A|--0-----------2--4--------------------------------------|
E|--------------------------------------------------------|


I:

E|-----------------------------------------------------------------|
B|-----------2--------------------------------------------------3--|
G|--------1--------------1--2--1--------------2--------------4-----|
D|-----2--------2--2--2-----------2--------4-----4--------4--------|
A|--0-----------------------------------4-----------4--2-----------|
E|-----------------------------2-----2-----------------------------|
A               F#m-Bm7
Ikaw na ang may sabi


E|--------------------------------|
B|--------------2--0--0-----------|
G|--2--2-----2-----------------1--|
D|--------4-----------------2-----|
A|-----------------------2--------|
E|--------------0-----------------|
           E
Na ako'y mahal mo rin


E|-----------------------------------------------------------|
B|-----------2--0--0-----0--2--------2--------------------3--|
G|--------1-----------2-----------------2--------------4-----|
D|-----2--------------------------4--------4--------4--------|
A|--0--------------------------4--------------4--2-----------|
E|--------------------------2--------------------------------|
A          F#m-Bm7
Ang sinabi mo

E|--------------------------|
B|--3--2--------2--0-----0--|
G|--------4--2--------2-----|
D|--------------------------|
A|-----------------------2--|
E|--------------0--------0--|
                   E
Ang pag-ibig mo'y 'di magbabago


Refrain:


E|--------------------------------------------------------------0--|
B|--2--3--5--------5--3--3--2--2--------------------2--2--------2--|
G|-----------2--2-----------------2--2--------------------2-----0--|
D|--------0--------0--------------------4--4--4--2-----------2--2--|
A|-----------------------------------------------0--------------0--|
E|-----------------------------------------------------------------|
       DM7        Dm                           A     A7
Ngunit bakit sa tuwing ako'y lumalapit ika'y lumalayo


E|--------------------------------------------------------2--|
B|--5--------5--3--3--2--2--------------------2--2--------2--|
G|-----2--2-----------------2--2--------------------2-----2--|
D|--0--------0--------------------4--4--4--2-----------2--4--|
A|-----------------------------------------0--------------4--|
E|--------------------------------------------------------2--|
DM7       Dm                        A             F#m
Puso'y laging nasasaktan pag may kasama kang iba


Chorus:


E|---------------------------------|
B|-----2--------------3--5--6--5---|
G|--------4--4--2--4--4--6--7--6---|
D|--4-----------------4--6--7--6---|
A|-----2--------------2--4--5--4---|
E|---------------------------------|
 Bm7         Bm7-------------------|C#m-Dm C#m-Bm7
'Di ba nila alam

E|-----------------------------|
B|-----2--------------3--5--6--|
G|--------4--4--2--4--4--6--7--|
D|--4-----------------4--6--7--|
A|-----2--------------2--4--5--|
E|-----------------------------|
           Bm7 C#m Dm hold
Tayo'y may sumpaan


E|------------------------------------|
B|-----0--2/3--2--------3--3/5-----0--|
G|--2-------------2--2----------2-----|
D|------------------------------------|
A|------------------------------------|
E|------------------------------------|
    D              Dm
Na ako'y sa iyo, Ika'y akin lamang


REPEAT INTRO ----

(Follow 1st stanza chords and tabs)


Kahit anong mangyari
Pag-ibig ko'y sa 'yo pa rin
Kahit ano pa
Ang sabihin nila'y ikaw pa rin

REFRAIN 2

E|-------------------------------------------------0--|
B|--2--3--5--5--5/6--6--5--3--2--------2--2--------2--|
G|-------------------------------2-----------2-----0--|
D|--------0------0------------------2-----------2--2--|
A|----------------------------------0--------------0--|
E|----------------------------------------------------|
      DM7      Dm            A          A7
Ang mahal, Maghihintay ako kahit kailan


E|----------------------------------------------------2--|
B|--2--3--5--5--5/6--6--5--3--2-----------2--2--------2--|
G|-------------------------------2--2-----------2-----2--|
D|--------0------0---------------------2-----------2--4--|
A|-------------------------------------0--------------4--|
E|----------------------------------------------------2--|
      DM7   Dm                     A        F#m
Kahit na,  Umabot pang ako'y nasa langit na

E|--------------------------------|
B|-----2--------------3--5--6--5--|
G|--------4--4--2--4--4--6--7--6--|
D|--4-----------------4--6--7--6--|
A|-----2--------------2--4--5--4--|
E|--------------------------------|
         Bm7       Bm7 C#m Dm hold
At kung 'di ka makita


E|-----------------------------------------|
B|-----------2--------------2-----3--5--6--|
G|--------------4--4--2--4--------4--6--7--|
D|--4--4--4--------------------4--4--6--7--|
A|-----------2--------------------2--4--5--|
E|-----------------------------------------|
      Bm7           Bm7 C#m Dm hold
Makikiusap kay Bathala


E|--------------------------------|
B|--3--2--0-----0--2--------0--2--|
G|-----------2--------2--2--------|
D|--------------0--0--------0--0--|
A|--------------------------------|
E|--------------------------------|
           D hold        Dm hold
Na ika'y hanapin, at sabihin


E|-----------------------------------|
B|-----------3--3-----3--2--------2--|
G|--2--2--2--------2-----------2-----|
D|--------------------------2--------|
A|-----------------------0-----------|
E|-----------------------------------|
             A
Ipaalala sa iyo


E|--------2-----------------------------|
B|--2--2-----2--3--5--3--2-----3--5--6--|
G|--------------------------2--4--6--7--|
D|-----------------------------4--6--7--|
A|-----------------------2-----2--4--5--|
E|--------2-----------------------------|

      Fm            Bm7 Bm7 C#m Dm hold
Ang nakalimutang sumpaan

E|------------------------------------|
B|-----0--2/3--2--------3--3/5-----0--|
G|--2-------------2--2----------2-----|
D|------------------------------------|
A|------------------------------------|
E|------------------------------------|
     D               Dm               same as intro, AM7 Fade
Na ako'y sa iyo, At ika'y akin lamang

            
            
Suggest correction
Creating personal tab
Creating personal tab
You can edit any tab online and save it as your Personal.

You can edit, replace or remove any tab part or add personal notes – all changes will be seen only by you.

Personal tabs can be accessed anytime from any device, even offline.
Learn more »
Give kudos to tab author, rate the tab!
1 2 3 4 5
comments
print report bad tab
guest
You may want to rate the tab now too:
select rating
Wanna post a correction for this tab? Suggest correction