Oops, an error
Loading. Please wait.

Muerte Al Falso Metal Tab

by Icaro
39 views 1 this week
no commentswrite comment
1 2 3 4 5
3 more votes to show rating
add to favorites
×
Save as Personal and add changes to this tab that will be seen only by you. Learn more ›
×
You can save this tab as Personal to edit and correct it or add notes. All changes will be seen only by you. Learn more »
save as personal
new!
launch autoscroll
font size
0
reset
how to read this tab
guitar tuner
Autoscroll
slow
fast
+/-
esc
set tempo
stop
INTRO:

---------------------------------------------------------
---------------------------------------------------------
----------------5-------------------------------4--------
--2-------------5---------------5---------------4--5-7---
--2--7-9-10-9-7-3----7-9-10-9-7-5----7-9-10-9-7-2--3-5---
--0-----------------------------3------------------------

RIFF 1:
-------------------------------------
-------------------------------------
-------------------------------------
-------------------------------------
--2-----------------------7-9-10-9-7-
--0-0-0-0-0-0-0-0-0-0-0-0------------


-------------------------------------
-------------------------------------
-------------------------------------
-5-----------------------------------
-3-3-3-3-3-3-3-3-3-3-3-3--7-9-10-9-7-
-------------------------------------

-------------------------------------
-------------------------------------
-------------------------------------
-------------------------------------
-5-----------------------7-9-10-9-7--
-3-3-3-3-3-3-3-3-3-3-3-3-------------

                FIN DE RIFF
---------------------------
---------------------------
---------------------------
-4---------5-------------7-
-2-2-2-2-2-3-3-3-3-3-3-3-5-
---------------------------


RIFF 2
-----------------------------------------------
-----------------------------------------------
-----------------------------------------------
-----------------------------------------------
--2---------------------------------------7-9--
--0-0-0-0-0-0-3-0-0-0-0-0-0-5-0-0-0-0-0-0-5-7--


---------------------------------------------
---------------------------------------------
---------------------------------------------
---------------------------------------------
-2---------------------------------------9-9-
-0-0-0-0-0-0-3-0-0-0-0-0-0-5-0-0-0-0-0-0-7-7-

INTRO X2 , RIFF 1 X 2


MI                       DO5
Sé que al levantar mi espada
                  SOL5
hay miedo en tu mirada
                SI-DO5-RE5
y no puedes pensar
MI                     DO5
que hoy tu final a llegado
                SOL5
no supliques en vano
                SI
muere con dignidad
DO5   RE5
Rata de albañal

RIFF 1 X 1

MI                       DO5
Vas hacia donde va el viento
                SOL5
masticando el veneno
                   SI
que te está por matar
MI                    DO5
Sos autor de tus fracasos
                    SOL5
y aunque sigas mis pasos
                 SI-DO5-RE5
nunca me alcanzarás


DO5
sé que
                  MI7
Has intentado estafar la fé
DO5
de quien!
                  SI-DO5-RE5
Hoy en ti pueda creer


MI                   DO5
Sé que ha llegado tu fin
                  SOL5
Puedes ver en mis ojos
              SI
como vas a morir
                     MI
No habrá tiempos de paz
                   DO5
en tu sucia conciencia
                     SOL5
y en nombre de mi esencia
                   SI-DO5-RE5
Muerte al falso metal


RIFF 1 X 2    RIFF 2 X 4 DO5  MI7  DO5  SI-DO5-RE5

Riff 1 x 2

FINAL : (NO ESTOY MUY SEGURO SI ES ASI)
-------------------------+--+--------------------------
-------------------------+--+--------------------------
-------------------------+--+--------------------------
-------------------------+x3+--------------------2-----
--2-2-2-2-3-3-5-5-7------+--+--2-2-2-2-3-3-5-5-7-2-----
-------------------------+--+--------------------0-----
Suggest correction
Give kudos to tab author, rate the tab!
1 2 3 4 5
comments
print report bad tab
guest
Wanna post a correction for this tab? Suggest correction