Oops, an error
Loading. Please wait.

Se Acaba La Noche Tab

by Icaro
27 views 3 this week
no commentswrite comment
1 2 3 4 5
3 more votes to show rating
add to favorites
×
Save as Personal and add changes to this tab that will be seen only by you. Learn more ›
×
You can save this tab as Personal to edit and correct it or add notes. All changes will be seen only by you. Learn more »
save as personal
new!
launch autoscroll
font size
0
reset
how to read this tab
guitar tuner
Autoscroll
slow
fast
+/-
esc
set tempo
stop
INTRO
      A           C#m              F#m                  F        E      A
e|------------------------------------------------------------------------|
B|--1---------------------------------------------------------------------|
G|-0-0h2--1h2-1h2-1h2--1----------------------------------0-2-4-4s5-4-2-0-|
D|2----------------------4-2-2h4-----------------------2-3-------------3-2|
A|--------------------------4-----2h4-2-4-0---0-2h4h2-4-------------------|
E|------------------------------------------2-----------------------------|

          C#m                 F#m                F          E          A
e|------------------------------------------------------------------------|
B|------------------------------------------------------------------------|
G|1h2-1h2-1h2---1----------------------------------0-2-4-5-7-9-10-9h10-9--|
D|----------------4-2---2h4---------------------2-3-----------------------|
A|--------------------4------2h4-2-4-0-0-2h4h2-4--------------------------|
E|------------------------------------2-----------------------------------|

A                               C#m
hoy, hoy es la noche en que por fin
                      F#m
voy a saber si es verdad
si es que ella siente algo
F         E
algo parecido al amor

seré sincero de una vez
ella sabrá que la amo
desde hace tanto tiempo
que ya no lo puedo recordar

ese disfraz de amigos
siempre ha quedado chico
con ambición herido
quiero mas y siempre quiero mas

CORO
A C#m       F#m G
     se acaba la noche
A C#m       F#m G
     se acerca el momento final
A C#m       F#m G
     respira profundo y dilo ya
A C#m       F#m F
     es hora de la verdad


se repite el INTRO


porque cambiaron tus ojos
eso no estaba en el plan
solo seremos amigos
pero quiero siempre quiero mas

CORO
se acaba la noche...


INTERMEDIO
Ax2  Fx2
e|---------0-------|----|-----------0--------|----|
B|-----2-------2---|----|-------1-------1----|----|
G|---2---2---2---2-|----|-----2---2---2---2--|----|
D|-----------------|-x2-|--------------------|-x2-|
A|-0---------------|----|--------------------|----|
E|-----------------|----|---1----------------|----|

CORO
se acaba la noche...

SOLO
e|5-5-4------------------------------------------4-5-4----12-12-12-10-9-10|
B|5-5--5-5s7-5----------------------------5-7-5h7-----7-5-12-12-12-10-9-10|
G|6-----------6-6h7-4-4h6-4----------4-6-7--------------------------------|
D|7------------------------6s7--4-6-7-------------------------------------|
A|------------------------------------------------------------------------|
E|------------------------------------------------------------------------|


e|---5-4-------------------5555-5-4-5-4---------4-5-7-5-4----------------|
B|5h7---7-5-7-5-5-------5-7-----7------7-5-7-5-7---------7-5--7-5---5-5h7|
G|----------------4-6-7---------6----------------------------6---4-6-----|
D|-----------------------------------------------------------------------|
A|-----------------------------------------------------------------------|
E|-----------------------------------------------------------------------|

CORO
se acaba la noche...(2)

FINAL

Ax2  Fx2
e|---------0-------|----|-----------0--------|----|
B|-----2-------2---|----|-------1-------1----|----|
G|---2---2---2---2-|----|-----2---2---2---2--|----|
D|-----------------|-x2-|--------------------|-x2-|
A|-0---------------|----|--------------------|----|
E|-----------------|----|---1----------------|----|


NOTAS
   A    C#m  F#m  F    E
e|-5----4----2----1----0-|
B|-5----5----2----1----0-|
G|-6----6----2----2----1-|
D|-7----6----4----3----2-|
A|-7----7----4----3----2-|
E|-5----2----1----0----0-|


aca esta todo el tema!!! que esta muy bueno!!!
un saludos para mis dos cuates... dos grandes musicos!!!
a quien debo esta tablatura!!!
gracias a DANIEL y YASER
Suggest correction
Give kudos to tab author, rate the tab!
1 2 3 4 5
comments
print report bad tab
guest
Wanna post a correction for this tab? Suggest correction