Oops, an error
Loading. Please wait.

It Was A Good Day tab

version 2
version 2

Interactive

37,560 views 57 this week
3 commentsread comments
1 2 3 4 5
x 21
add to favorites
×
Save as Personal and add changes to this tab that will be seen only by you. Learn more ›
×
You can save this tab as Personal to edit and correct it or add notes. All changes will be seen only by you. Learn more »
launch autoscroll
font size
0
reset
how to read this tab
guitar tuner
edit
Autoscroll
slow
fast
+/-
esc
set tempo
stop
Author
Difficulty
Unregistered
intermediate
Tabbed by: yesmandroc
Email: yesmandroc@yahoo.com
Tuning: e B G D A E

Madd heads are starting to ask for tabs of how I play this here: http://www.youtube.com/watch?v=bMVeS0ymHto

e|--------------------------------------------------------------------------|
B|-8--------8------8-----11^13-11-10^11-10----------11-11-11-10-------------|
G|-7--------7------7-----------------------12-------10-10-10-10-------------|
D|-8--------8------8--------------------------------12-12-12-10-------------|
A|-6--------6------------10--------------------10---10-10-10-8--------------|
E|-----6---------6----------------10----------------------------------------|


************************************

| ^ Hammer on\Pull off

************************************

            
            
Suggest correction
Creating personal tab
Creating personal tab
You can edit any tab online and save it as your Personal.

You can edit, replace or remove any tab part or add personal notes – all changes will be seen only by you.

Personal tabs can be accessed anytime from any device, even offline.
Learn more »
comments
print report bad tab
3 comments total.
0 reply
rkapp 10 Dec 31, 2012 04:44 PM

Hip hop heads need more of this. Incredible tab.

0 reply
Indie Purist 949 Jun 04, 2014 09:21 AM, edited at 01:29 pm

Great tab, I play it like this (I think the end part alternates between what I have and what's above). It's all about the rhythm and strumming, using upstrokes for the high notes, etc

0 reply
Indie Purist 949 Jun 04, 2014 09:30 AM

Great tab, I play it like this

E|---------10-8---------------------|--------------------------------|
B|-------8-8--8--11h13p11-10h11p10--|8---8-8-10----------------------|
G|-------8-8--8--10-------10--------|8---8-8-10----------------------|
D|-------8-------12-------12--------|10--8-8-10----------------------|
A|-10-10----------------------------|--------------------------------|
E|----------------------------------|--------------------------------|

guest
Wanna post a correction for this tab? Suggest correction