Oops, an error
Loading. Please wait.

No Vasoline bass

1,807 views 60 this week
no commentswrite comment
1 2 3 4 5
2 more votes to show rating
add to favorites
×
Save as Personal and add changes to this tab that will be seen only by you. Learn more ›
×
You can save this tab as Personal to edit and correct it or add notes. All changes will be seen only by you. Learn more »
launch autoscroll
font size
0
reset
guitar tuner
edit
Autoscroll
slow
fast
+/-
esc
set tempo
stop
Author
Difficulty
About this tab version
No one else has tabbed this, Comment your feelings. Was this info helpful? Yes No
Ice Cube - No Vasoline   

Tabbed by: GeorgeLopezTacos          

                                 *Note to reader: the first two Tab columns are the guitar parts,as the guitar
                                     tab is very short. The rest is the bass tab as labelled. Enjoi!         
Tuning:Stand.   
   1st time  2nd       *wth  Springy-reverb and wah effect               
e|--7---9---|---7---7------|
B|--8---10--|---8---8------|
G|--7---9---|---7---7------|
D|--9---11--|---9---9------|

 @ 1:27
"bout a punk-ass villain"
e|------------------------15-15-15-15-15\-|
B|----------------------------------------|
G|----------------------------------------|
D|----------------------------------------|


Bass:  Start right after "god-damn i'm glad ya'll set it off'

G|---------------------------------------------------------------------------|
D|--------------------------9--7-7-------------------------------------------|     [Intro/ Verse]
A|-----------------5----7------------10---7---5------------------------------|
E|--0----5----7--------------------------------------------------------------|

G|---------------------------------------------------------------------------|
D|---------------------------------------------------------------------------|
A|-----------------5---------------------------------------------------------|
E|--0----5----7---------0-----5--5--3--2--0----------------------------------|
 
"With no vasoline...."                 "Damn it feels good to see..."                              

G|-----------------------------------|----------------------------------------|
D|-----------------------------------|----------------------------------------|     [PreChorus/Chorus?]
A|-----------------------------------|----------------------------------------|
E|---------------7--7--7--7--7--7--7-|----7-6-5--5-3-2------------------------|

Key change (Just play for first half of the 2nd verse)
   *Guitar plays the same thing.
                                                   "I never had dinner with the president!" [2nd Pr-Chr]  
G|-------------------------|                       |--------------------------------------------------|
D|-------------------------| First 1/2             |--------------------------------------------------|      
A|----------------7-9------| of [2nd verse]        |------------------5-------------------------------|    
E|--2---7--9----9----------|                       |--7-7---7-7---7-5---------------------------------|  

maybe not completely accurate, but no one else has posted this tab. 
Feel free to rate, comment



************************************

| \  Slide down
| /  Slide up

************************************

            
            
Suggest correction
Creating personal tab
Creating personal tab
You can edit any tab online and save it as your Personal.

You can edit, replace or remove any tab part or add personal notes – all changes will be seen only by you.

Personal tabs can be accessed anytime from any device, even offline.
Learn more »
Give kudos to tab author, rate the tab!
1 2 3 4 5
comments
print report bad tab
guest
You may want to rate the tab now too:
select rating
Wanna post a correction for this tab? Suggest correction