Oops, an error
Loading. Please wait.

A Lifetime In A Week solo tab

version 1
version 1

Solo

Whole song

1,572 views 1 this week
5 commentsread comments
1 2 3 4 5
1 last vote to show rating
add to favorites
×
Save as Personal and add changes to this tab that will be seen only by you. Learn more ›
×
You can save this tab as Personal to edit and correct it or add notes. All changes will be seen only by you. Learn more »
launch autoscroll
font size
0
reset
how to read this tab
guitar tuner
edit
Autoscroll
slow
fast
+/-
esc
set tempo
stop
-------------------------------------------------------------------------------
                             A Lifetime In A Week - Ice Nine Kills
-------------------------------------------------------------------------------
Tabbed by: Andy Thomas
Email: cooldude_andyman@hotmail.com

Tuning: Im pretty sure the song is played standard with a capo on 3rd fret, so
thats what im doing for this tab (the tab is in realation to the capo)



sorry it's only the solo, i'm working on the rest of it and i'll put it up asap

It starts at 1:22

e|---3--0--2-3/5/7--3--3-5-7-3----3-5-7/8-7-5-3-------------0-2-3--/10-------|
B|------------------------------------------------5-3-1-0--------------------|
G|---------------------------------------------------------------------------|
D|---------------------------------------------------------------------------|
A|---------------------------------------------------------------------------|
E|---------------------------------------------------------------------------|

e|----2-3--/12--10-8-7-8-7-5-3-----0---/8-7---0---/7-5---0--/5--3---4-3-4----|
B|---------------------------------------------------------------------------|
G|---------------------------------------------------------------------------|
D|---------------------------------------------------------------------------|
A|---------------------------------------------------------------------------|
E|---------------------------------------------------------------------------|


| /  slide up
| \  slide down
| h  hammer-on
| p  pull-off
| ~  vibrato
| +  harmonic
| x  Mute note

            
            
Suggest correction
Creating personal tab
Creating personal tab
You can edit any tab online and save it as your Personal.

You can edit, replace or remove any tab part or add personal notes – all changes will be seen only by you.

Personal tabs can be accessed anytime from any device, even offline.
Learn more »
Give kudos to tab author, rate the tab!
1 2 3 4 5
comments
print report bad tab
5 comments total. Showing first comments.
0 reply
05K4R 27 Dec 04, 2007 10:59 AM

This is a really great tab! Nice work, even if its just the solo :) But, I have a correction, isn't the last three tones
3-2-3 and not
4-3-4? :)

0 reply
k30147 30 Dec 23, 2007 05:22 PM

there's a part at about 0:31 that goes like this (with no
capo)

e|--------6---------6--10--6---------6--------6--10h11p10--------------------|
B|--4--6----6--4-6-------------
4--6----6-4-6---------------------------------|
G|---------------------------------------------------------------------
------|
D|---------------------------------------------------------------------------|
A|-----------------------------
----------------------------------------------|
E|---------------------------------------------------------------------
------|

e|--------6--------6-10h11p10--8-8-8h10--6--6-6-5----------------------------|
B|--4--6----6--4-6-----------
------------------------------------------------|
G|-------------------------------------------------------------------
--------|
D|---------------------------------------------------------------------------|
A|---------------------------
------------------------------------------------|
E|-------------------------------------------------------------------
--------|

0 reply
k30147 30 Dec 23, 2007 05:23 PM

crap i dont know why it looks like that... :(

guest
You may want to rate the tab now too:
select rating
Wanna post a correction for this tab? Suggest correction