Oops, an error
Loading. Please wait.

A Lifetime In A Week tab

version 4
version 4

Whole song

103 views 3 this week
no commentswrite comment
1 2 3 4 5
2 more votes to show rating
add to favorites
×
Save as Personal and add changes to this tab that will be seen only by you. Learn more ›
×
You can save this tab as Personal to edit and correct it or add notes. All changes will be seen only by you. Learn more »
launch autoscroll
font size
0
reset
how to read this tab
guitar tuner
edit
Autoscroll
slow
fast
+/-
esc
set tempo
stop
All guitars tuned down one whole step from standard


[Section 1]

"Well, the streets can't get much darker..."

  Both Guitars (x2)
d|-0--0---0-0-0-0--0--0-----0-0-0-1--1--1-1-1-3--3-3-3--1-1-1--|
A|-0--1---0h1-1-1--1--1--3--1-1-1-1--1--1-1-1-1--1-1-1--1-1-1--|
F|-2--2---2-2-2-2--2--2--2--2-2-2-2--2--2-2-2-2--2-2-2--2-2-2--|
C|-2--2---2-2-2-2--2--2--2--2-2-2-3--3--3-3-3-3--3-3-3--3-3-3--|
G|-0--0---0-0-0-0--0--0--0--0-0-0-3--3-------------------------|
D|--------------------------------1--1-------------------------|

d|-0--0--0-0-0-0--0-0-0--0-0-0-3--3--3-3-3-1--1-1-1--0-0-0--|
A|-1--1--1-1-1-3--3-3-3--1-1-1-0--0--0-0-0-0--3-3-3--3-3-3--|
F|-0--0--0-0-0-0--0-0-0--0-0-0-0--0--0-0-0-0--0-0-0--0-0-0--|
C|-2--2--2-2-2-2--2-2-2--2-2-2-0--0--0-0-0-0--0-0-0--0-0-0--|
G|-3--3--3-3-3-3--3-3-3--3-3-3-2--2--2-2-2-2--2-2-2--2-2-2--|
D|-----------------------------3--3--3-3-3-3--3-3-3--3-3-3--|


[Section 2a]

"And this is the last time..."

  Both guitars
d|-------------------0-----------------------0h1-0--------------------0-----------------------0h1p0--|
A|-------1--------------1--------1--------------3---------1--------------1--------1------------------|
F|----0----0----0-------------0----0----0--------------0----0----0-------------0----0----0-----------|
C|-3---------3-----3-------2---------------2--------3---------3-----3-------2---------------2--------|
G|---------------------------------------------------------------------------------------------------|
D|---------------------------------------------------------------------------------------------------|


[Section 2b]

  Guitar 1
d|--------------------------12-------------------------------12h13-12--|
A|---------13-------------------13----------13-------------------------|
F|-----12-----12-----12-----------------12-----12-----12---------------|
C|-15------------15------15---------14------------14------14-----------|
G|---------------------------------------------------------------------|
D|---------------------------------------------------------------------|
 |
 |Guitar 2
d|--------------------------------------------------------------------|
A|--------------------------------------------------------------------|
F|----------------------------------5---5---x-x-x-5---5---x--5/7--5---|
C|-3---3---x-x-x-3---3---3--x-3-x-x-5---5---x-x-x-5---5---x--5/7--5---|
G|-3---3---x-x-x-3---3---3--x-3-x-x-3---3---x-x-x-3---3---x--3/5--3---|
D|-1---1---x-x-x-1---1---1--x-1-x-x-----------------------------------|

  Guitar 1
d|--------------------------12h13p12-10--10-10--10h12p10-8---8--8---8--7--|
A|---------13-------------------------------------------------------------|
F|-----12-----12-----12---------------------------------------------------|
C|-15------------15------15-----------------------------------------------|
G|------------------------------------------------------------------------|
D|------------------------------------------------------------------------|
 |
 |Guitar 2
d|-----------------------------------------------------------------------|
A|-----------------------------------------------------------------------|
F|-----------------------------------------------------------------------|
C|-3---3---x-x-x-3---3---3--3--3--3/5---5--5---5-----5--5---5--5---5--5--|
G|-3---3---x-x-x-3---3---3--3--3--3/5---5--5---5-----5--5---5--5---5--5--|
D|-1---1---x-x-x-1---1---1--1--1--1/3---3--3---3-----3--3---3--3---3--3--|


[Section 3]

"And these days pass..."

  Guitar 1
d|-----------------------------------------------------------|
A|-----------------------------------------------------------|
F|---------5----------5------5------4p0-5------4p0-5--4p0-5--|
C|-x-x-5p0----x-x-5p0----5p0----x-x--------x-x---------------|
G|-x-x--------x-x---------------x-x--------x-x---------------|
D|-----------------------------------------------------------|
 |
 |Guitar 2
d|-----------------------------------------------------------|
A|-----------------------------------------------------------|
F|-5-5--------5-5--------5------4-4--------4-4--------4-4----|
C|-5-5--------5-5--------5------5-5--------5-5--------5-5----|
G|-3-3--------3-3--------3------2-2--------2-2--------2-2----|
D|-----------------------------------------------------------|

  Guitar 1
d|----------------------------------------------------------|
A|----------------------------------------------------------|
F|-----9p0-5------9p0-5--2p0-0------5p0-7----7/10--10-9--7--|
C|-x-x--------x-x---------------x-x--------x----------------|
G|-x-x--------x-x---------------x-x--------x----------------|
D|----------------------------------------------------------|
 |
 |Guitar 2
d|----------------------------------------------------------|
A|----------------------------------------------------------|
F|------------------------------7---7-7-7--7----------------|
C|-2-2--------2-2--------2------7---7-7-7--7-x-3---3---3-3--|
G|-3-3--------3-3--------3------5---5-5-5--5-x-3---3---3-3--|
D|-0-0--------0-0--------0-------------------x-1---1---1-1--|

  Both Guitars
d|----------------------------------------------------------|
A|----------------------------------------------------------|
F|-5---5---x-x-x-x-5-5--5--5-x-x-4---4---x-x-x-x--4--4-4-4--|
C|-5---5---x-x-x-x-5-5--5--5-x-x-5---5---x-x-x-x--5--5-5-5--|
G|-3---3---x-x-x-x-3-3--3--3-x-x-2---2---x-x-x-x--2--2-2-2--|
D|----------------------------------------------------------|

d|-----------------------------------------------------------------|
A|-----------------------------------------------------------------|
F|-2---2---2---2---2---2---2---2---4---4---4---4---4---4---4---4---|
C|-3---3---3---3---3---3---3---3---5---5---5---5---5---5---5---5---|
G|-3---3---3---3---3---3---3---3---5---5---5---5---5---5---5---5---|
D|-1---1---1---1---1---1---1---1---3---3---3---3---3---3---3---3---|


[Section 4]

"And all I have left are those nights..."

  Guitar 1
d|-12------12------12------12------10------10------10------10------|
A|-----13------13------13------13------13------13------13------13--|
F|-----------------------------------------------------------------|
C|-----------------------------------------------------------------|
G|-----------------------------------------------------------------|
D|-----------------------------------------------------------------|
 |
 |Guitar 2
d|-----0---0-0-0-0-----0-------0-------1---1-1-1-1-----1-------1---|
A|-----1---1-1-1-1-----1-------1-------1---1-1-1-1-----1-------1---|
F|-2---2---2-2-2-2-2-2-2---2-2-2-------2---2-2-2-2-----2-------2---|
C|-2---2---2-2-2-2-2-2-2---2-2-2---3---3---3-3-3-3-3-3-3---3-3-3---|
G|-0---0---0-0-0-0-0-0-0---0-0-0---3---3---3-3-3-3-3-3-3---3-3-3---|
D|---------------------------------1---1---1-1-1-1-1-1-1---1-1-1---|

  Guitar 1
d|-12------12------12------12------10------10------13--12--10--12--|
A|-----13------13------13------13------13------13------------------|
F|-----------------------------------------------------------------|
G|-----------------------------------------------------------------|
C|-----------------------------------------------------------------|
D|-----------------------------------------------------------------|
 |
 |Guitar 2
d|-----0---0-0-0-0-----0-------0-------3---3-3-3-3-----3-------3---|
A|-----1---1-1-1-1-----1-------1-------0---0-0-0-0-----0-------0---|
F|-0---0---0-0-0-0-0-0-0---0-0-0-------0---0-0-0-0-----0-------0---|
G|-2---2---2-2-2-2-2-2-2---2-2-2---0---0---0-0-0-0-0-0-0---0-0-0---|
C|-3---3---3-3-3-3-3-3-3---3-3-3---2---2---2-2-2-2-2-2-2---2-2-2---|
D|---------------------------------3---3---3-3-3-3-3-3-3---3-3-3---|

 Guitar 1
d|-12------12------12------12--13--15------15------15------15--13--|
A|-----13------13------13--------------13------13------13----------|
F|-----------------------------------------------------------------|
C|-----------------------------------------------------------------|
G|-----------------------------------------------------------------|
D|-----------------------------------------------------------------|
 |
 |Guitar 2
d|-----0---0-0-0-0-----0-------0-------1---1-1-1-1-----1-------1---|
A|-----1---1-1-1-1-----1-------1-------1---1-1-1-1-----1-------1---|
F|-2---2---2-2-2-2-2-2-2---2-2-2-------2---2-2-2-2-----2-------2---|
C|-2---2---2-2-2-2-2-2-2---2-2-2---3---3---3-3-3-3-3-3-3---3-3-3---|
G|-0---0---0-0-0-0-0-0-0---0-0-0---3---3---3-3-3-3-3-3-3---3-3-3---|
D|---------------------------------1---1---1-1-1-1-1-1-1---1-1-1---|

  Guitar 1
d|-12------12------12------12------10------10------10------12------|
A|-----13------13------13------13------13------13------12----------|
F|-----------------------------------------------------------------|
G|-----------------------------------------------------------------|
C|-----------------------------------------------------------------|
D|-----------------------------------------------------------------|
 |
 |Guitar 2
d|-----0---0-0-0-0-----0-------0-------3---3-3-3-3-----3-------3---|
A|-----1---1-1-1-1-----1-------1-------0---0-0-0-0-----0-------0---|
F|-0---0---0-0-0-0-0-0-0---0-0-0-------0---0-0-0-0-----0-------0---|
G|-2---2---2-2-2-2-2-2-2---2-2-2---0---0---0-0-0-0-0-0-0---0-0-0---|
C|-3---3---3-3-3-3-3-3-3---3-3-3---2---2---2-2-2-2-2-2-2---2-2-2---|
D|---------------------------------3---3---3-3-3-3-3-3-3---3-3-3---|


[Section 5]

  Guitar 1
d|-------------7--8--10----12-------8--------10/12-8-----------------8--10-13-12-10-8--------------|
A|-13----10-------------------------------8-----------------8-----8--------------------10-8--------|
F|-------------------------------------------------------------------------------------------10-9--|
C|-------------------------------------------------------------------------------------------------|
G|-------------------------------------------------------------------------------------------------|
D|-------------------------------------------------------------------------------------------------|
 |
 |Guitar 2
d|-------------------------------------------------------------0-----------------------------------|
A|-------------------1--------------------------------------------1--------------------------0--1--|
F|-------2--------------2-----------0--2--0--------------0-----------0-----------0-----0--2--------|
C|----2-----------2--------------3-----------3--2-----2-----2-----------2-----0--------------------|
G|-0--------------------------3--------------------3-----------------------------------------------|
D|-------------------------1-----------------------------------------------3-----------------------|

 Guitar 1
d|----7--8/15-----------17----15-13-12-13-12-------------13-12-------12-10-------10-8-----8--7--8--|
A|-10-------------12-13----------------------15-13----8-----------8-----------8--------------------|
F|-------------------------------------------------------------------------------------------------|
C|-------------------------------------------------------------------------------------------------|
G|-------------------------------------------------------------------------------------------------|
D|-------------------------------------------------------------------------------------------------|
 |
 |Guitar 2
d|-------------------------------------------------------1--0--------0-----------------------------|
A|-------------------1--------------------------------------------------3--------3--1--------0--1--|
F|-------2--------------2-----------0--2--0-----------------------------------------------0--------|
C|----2-----------2--------------3-----------3--2-----2-----------2-----------0--------------------|
G|-0--------------------------3--------------------3-----------3-----------------------------------|
D|-------------------------1-----------------------------------------------3-----------1-----------|


[Section 6]

"And I seem to recall..."

First repetition, play as notated. Second repetition, play {b} in place of {a}.

  Guitar 1 (first two times)*          {a}                                           {b}
d|-------------------------------------10-8--7--7-----8--------------------------------10-8--7--8--|
A|----------------------------------------------------------------------------------8--------------|
F|-------------------------------------------------------------------------------------------------|
C|-------------------------------------------------------------------------------------------------|
G|-------------------------------------------------------------------------------------------------|
D|-------------------------------------------------------------------------------------------------|
 |
 |Guitar 2 (repeat to end)
d|-------0-----1--0-----0--------------1--0-----0--------3p-0--------3p-0--------1p-0-----------0--|
A|----------1--------1-----------1-----------1--------1-----------1-----------1-----------1--3-----|
F|----0-----------------------2-----2--------------------------------------------------------------|
C|-------------------------0-----------------------------------------------3-----------3-----------|
G|-3-----------------------------------------------------------------------------------------------|
D|-------------------------------------------------1-----------------------------------------------|


************************************
| x   Dead note
| h   Hammer-on
| p   Pull-off
| /   Slide up
************************************

            
            
Suggest correction
Creating personal tab
Creating personal tab
You can edit any tab online and save it as your Personal.

You can edit, replace or remove any tab part or add personal notes – all changes will be seen only by you.

Personal tabs can be accessed anytime from any device, even offline.
Learn more »
Give kudos to tab author, rate the tab!
1 2 3 4 5
comments
print report bad tab
guest
You may want to rate the tab now too:
select rating
Wanna post a correction for this tab? Suggest correction