Oops, an error
Loading. Please wait.

Communion Of The Cursed tab

version 1
version 1

Whole song

Interactive

511 views 24 this week
1 commentread comment
1 2 3 4 5
2 more votes to show rating
add to favorites
×
Save as Personal and add changes to this tab that will be seen only by you. Learn more ›
×
You can save this tab as Personal to edit and correct it or add notes. All changes will be seen only by you. Learn more »
launch autoscroll
font size
0
reset
how to read this tab
guitar tuner
edit
Autoscroll
slow
fast
+/-
esc
set tempo
stop
----------------------------------------------------------------------------------------------------------
------------------------ Communion of the Cursed - Ice Nine Kills ----------------------------------------
Tabbed by: Hail Shakira: Tuning: Drop C#, (C# G# C# F# A# D#)

[Intro]
e|---------------------------------------------------------------|
B|---------------------------------------------------------------|
G|---------------------------------------------------------------|
D|-0----0-5---5-7-8---8-10-7-------------------------------------|
A|-0----0-5---5-7-8---8-10-7-------------------------------------|
E|-0----0-5---5-7-8---8-10-7----0-0-0-0-0-0-0-0-0-0-0-0-0-0-0-0--|
                Groovy Chugging|-------------------------------|

[Verse]
e|--------------------------------------------------------------|
B|--------------------------------------------------------------|
G|--------------------------------------------------------------|
D|---------------------------3-4---------8877-------------------|
A|-5-------5-6-------5-----5----------------66-10-10-9-9-6-6-5-5|
E|---0-0-0-----0-0-0---0-0-------0-0-0-0------------------------|

e|---------------------------------------------------------------|
B|---------------------------------------------------------------|
G|---------------------------------------------------------------|
D|----------------------------------------------3-4--------------|
A|--------------------5-------5-6-------5-----5------------------|
E|-16-16-17-16-13-12----0-0-0-----0-0-0---0-0-------0-0-0-0------|

e|---------------------------------------------------------------|
B|---------------------------------------------------------------|
G|---------------------------------------------------------------|
D|-8-8-7-7-------------------------------------------------------|
A|---------6-6-10-10-9-9-6-6-5-5---------------------------------|
E|-------------------------------5-4-1-0-1-4---------------------|

[Pre-Chorus]
e|---------------------------------------------------------------|
B|---------------------------------------------------------------|
G|---------------------------------------------------------------|
D|-0-0---0-0----0-0----0-0----0-0-0-0-0-0----0-0----0-0---0-0----|
A|-0-0---0-0----0-0----0-0----0-0-0-0-0-0----0-0----0-0---0-0----|
E|-0-0---0-0----0-0----0-0----0-0-0-0-0-0----0-0----0-0---0-0----|
 PM|---------------------------------------------------------|

e|--------------------------|------------------------------------|
B|--------------------------|------------------------------------|
G|--------------------------|------------------------------------|
D|--------------------------|------------------------------------|
A|-----15----15-------------|------------------------------------|
E|-0-0----13----12-13-16-0-0|12-0-0-12-13-0-0-12-0-16-0-16-17-0-0|

e|---------------------------------------------------------------|
B|---------------------------------------------------------------|
G|---------------------------------------------------------------|
D|-----8p7-----5p4---------0--7----------------------------------|
A|---------5h6-------------0--7----------------------------------|
E|-7h8-------------5-4-1-0-0--7----------------------------------|

[Chorus]
e|---------------------------------------------------------------|
B|---------------------------------------------------------------|
G|---------------------------------------------------------------|
D|-0-----0-5----5-7-8------8-10-7-----0-0-0----------------------|
A|-0-----0-5----5-7-8------8-10-7-----0-0-0----------------------|
E|-0-----0-5----5-7-8------8-10-7-----0-0-0----------------------|

[Verse]
e|--------------------------------------------------------------|
B|--------------------------------------------------------------|
G|--------------------------------------------------------------|
D|---------------------------3-4---------8877-------------------|
A|-5-------5-6-------5-----5----------------66-10-10-9-9-6-6-5-5|
E|---0-0-0-----0-0-0---0-0-------0-0-0-0------------------------|

e|---------------------------------------------------------------|
B|---------------------------------------------------------------|
G|---------------------------------------------------------------|
D|----------------------------------------------3-4--------------|
A|--------------------5-------5-6-------5-----5------------------|
E|-16-16-17-16-13-12----0-0-0-----0-0-0---0-0-------0-0-0-0------|

e|---------------------------------------------------------------|
B|---------------------------------------------------------------|
G|---------------------------------------------------------------|
D|-8-8-7-7-------------------------------------------------------|
A|---------6-6-10-10-9-9-6-6-5-5---------------------------------|
E|-------------------------------5-4-1-0-1-4---------------------|

Then Some Chugging and a lead part I cant tab out

[Pretty generic breakdown]
e|---------------------------------------------------------------|
B|---------------------------------------------------------------|
G|---------------------------------------------------------------|
D|---------------------------------------------------------------|
A|---------------------------------------------------------------|
E|-0-0-0-0-0-0-0-0-0-0-0-0-0-0-0-0-0-00--------------------------|

[Outro Chorus after the cool breakdown]
e|---------------------------------------------------------------|
B|---------------------------------------------------------------|
G|---------------------------------------------------------------|
D|-0-----0-5----5-7-8------8-10-7-----0-0-0----------------------|
A|-0-----0-5----5-7-8------8-10-7-----0-0-0----------------------|
E|-0-----0-5----5-7-8------8-10-7-----0-0-0----------------------|

[the real outro after the last chorus is also a breakdown type deal]
e|---------------------------------------------------------------|
B|---------------------------------------------------------------|
G|---------------------------------------------------------------|
D|---------------------------------------------------------------|
A|---------------------------------------------------------------|
E|-0-0-0-0-0-0-0-0-0-0-0-0-0-0-0-0-0-00--------------------------|
 

 
************************************

| p  Pull-off
| h  Hammer-on
 

************************************

            
            
Suggest correction
Creating personal tab
Creating personal tab
You can edit any tab online and save it as your Personal.

You can edit, replace or remove any tab part or add personal notes – all changes will be seen only by you.

Personal tabs can be accessed anytime from any device, even offline.
Learn more »
Give kudos to tab author, rate the tab!
1 2 3 4 5
comments
print report bad tab
1 comment total.
0 reply
fireboy7373 10 Jun 11, 2017 08:31 PM

can you make this into a pro tab?

guest
You may want to rate the tab now too:
select rating
Wanna post a correction for this tab? Suggest correction