Oops, an error
Loading. Please wait.

Hell In The Hallways tab

61 views 9 this week
2 commentsread comments
1 2 3 4 5
2 more votes to show rating
add to favorites
×
Save as Personal and add changes to this tab that will be seen only by you. Learn more ›
×
You can save this tab as Personal to edit and correct it or add notes. All changes will be seen only by you. Learn more »
launch autoscroll
font size
0
reset
how to read this tab
guitar tuner
edit
Autoscroll
slow
fast
+/-
esc
set tempo
stop
About this tab version
The most accurate tab of the song. Was this info helpful? Yes No
It won't let me change the tuning in the submission but it's in Drop A for 7 string

Title: Hell In The Hallways
Artist: ICE NINE KILLS
Tempo = 145
Guitar 1

Legend
L - tied note
x - dead note
h - hammer on/pull off
b - bend
s - slide
~ - vibrato
g - ghost note
> - accentuated note
t - trill
M - palm mute
. - staccato
P - popping (bass)
S - slapping (bass)
+ - tapping
W - wide vibrato
< - fade in
w - whammy bar
= - tremolo picking
v - brush up
^ - brush down
V - pick stroke up
n - pick stroke down


E |-------||-5----|--8----|--1L---|--1----|--5----|--8----|--1L---|--1---||
B |-------||-5----|--8----|--1L---|--1----|--5----|--8----|--1L---|--1---||
G |-------||o5----|--9----|--2L---|--2----|--5----|--9----|--1L---|--1--o||
D |-------||o7----|--10---|--3L---|--3----|--7----|--10---|--3L---|--3--o||
A |-------||-7----|--10---|--3L---|--3----|--7----|--10---|--3L---|--3---||
E |-------||-5----|--8----|--1L---|--1----|--5----|--8----|--1L---|--1---||
A |-------||------|-------|-------|-------|-------|-------|-------|------||


----------------------------------------------------|
----------------------------------------------------|
----------------------------------------------------|
----------------------------------------------------|
----------------------------------------------------|
--6M----------------6M-6M-6M----------6L------------|
--0M----------------0M-0M-0M----------0L------------|


----------------------------------------------------|
----------------------------------------------------|
----------------------------------------------------|
----------------------------------------------------|
----------------------------------------------------|
--6M------------------------------------------------|
--0M----0M-0M-13M13M0M-0M-13M13M0M-0M-13M13M0M-0M---|


----------------------------------------------------|
----------------------------------------------------|
----------------------------------------------------|
----------------------------------------------------|
----------------------------------------------------|
--6M----------------6M-6M-6M----------6L------------|
--0M----------------0M-0M-0M----------0L------------|


----------------------------------------------------||
----------------------------------------------------||
----------------------------------------------------||
----------------------------------------------------||
----------------------------------------------------||
--6M------------------------------------------------||
--0M----0M-0M-13M13M0M-0M-13M13M0M-0M-13.-----------||


---------------------------------------------------|
---------------------------------------------------|
o--------------------------------------------------|
o--------------------------------------------------|
---------------------------------------------------|
-0M-0M-------0M----0M----0M-0M-------0M----0M-0M---|
-0M-0M-------0M----0M----0M-0M-------0M----0M-0M---|


----------------------------------------------------|
----------------------------------------------------|
----------------------------------------------------|
----------------------------------------------------|
----------------------------------------------------|
--------0M-0M-0M----0M----0M-0M-0M----0M----0M------|
--------0M-0M-0M----0M----0M-0M-0M----0M----0M------|


----------------------------------------------------|
----------------------------------------------------|
----------------------------------------------------|
----------------------------------------------------|
----------------------------------------------------|
--0M-0M-------0M----0M----0M-0M-------0M----0M-0M---|
--0M-0M-------0M----0M----0M-0M-------0M----0M-0M---|


---------------------------------------------------||
---------------------------------------------------||
--------------------------------------------------o||
--------------------------------------------------o||
---------------------------------------------------||
--------0M-0M-0M-0M-------0M-0M----0M-0M-----------||
--------0M-0M-0M-0M-------0M-0M----0M-0M----13-13--||


----------------------------------------------------|
----------------------------------------------------|
----------------------------------------------------|
----------------------------------------------------|
----------------------------------------------------|
--0M-0M-------0M----0M----0M-0M-------0M----0M-0M---|
--0M-0M-------0M----0M----0M-0M-------0M----0M-0M---|


----------------------------------------------------|
----------------------------------------------------|
----------------------------------------------------|
----------------------------------------------------|
----------------------------------------------------|
--------0M-0M-0M----0M----0M-0M-0M----0M----0M------|
--------0M-0M-0M----0M----0M-0M-0M----0M----0M------|


----------------------------------------------------|
----------------------------------------------------|
----------------------------------------------------|
----------------------------------------------------|
----------------------------------------------------|
--8M-8M-------8M----8M----8M-8M-------8M----8M-8M---|
--8M-8M-------8M----8M----8M-8M-------8M----8M-8M---|


----------------------------------------------------|
----------------------------------------------------|
----------------------------------------------------|
----------------------------------------------------|
----------------------------------------------------|
--------7M-7M-7M-7M-7-------------------------------|
--------7M-7M-7M-7M-7-------------------------------|


----------------------------|----------------------------|
----------------------------|----------------------------|
----------------------------|----------------------------|
----------------------------|-----------------------3L---|
--0--0--0--0--0--0-----0----|--3--3--3--3--3--3--3--3L---|
--0--0--0--0--0--0-----0----|--3--3--3--3--3--3--3--1L---|
--0--0--0--0--0--0-----0----|--3--3--3--3--3--3--3-------|


----------------------------|----------------------------|
----------------------------|----------------------------|
----------------------------|----------------------------|
--3--3--3--3--3--3-----3----|--3--3--3--3--3--3--3--3----|
--3--3--3--3--3--3-----3----|--3--3--3--3--3--3--3--3----|
--1--1--1--1--1--1-----1----|--1--1--1--1--1--1--1--1----|
----------------------------|----------------------------|


----------------------------|----------------------------|
----------------------------|----------------------------|
----------------------------|----------------------------|
----------------------------|-----------------------6L---|
--0--0--0--0--0--0-----0----|--3--3--3--3--3--3--3--5L---|
--0--0--0--0--0--0-----0----|--3--3--3--3--3--3--3--4L---|
--0--0--0--0--0--0-----0----|--3--3--3--3--3--3--3--5L---|


----------------------------|----------------------------|
----------------------------|----------------------------|
----------------------------|----------------------------|
--6--6--6--6--6--6-----6----|--6--6--6--6--6--6--6--6----|
--5--5--5--5--5--5-----5----|--5--5--5--5--5--5--5--5----|
--4--4--4--4--4--4-----4----|--4--4--4--4--4--4--4--4----|
--5--5--5--5--5--5-----5----|--5--5--5--5--5--5--5--5----|


----------------------------------------------------|
----------------------------------------------------|
----------------------------------------------------|
----------------------------------------------------|
----------------------------------------------------|
--0M-0M-------0M----0M----0M-0M-------0M----0M-0M---|
--0M-0M-------0M----0M----0M-0M-------0M----0M-0M---|


----------------------------------------------------||
----------------------------------------------------||
----------------------------------------------------||
----------------------------------------------------||
----------------------------------------------------||
--------0M-0M-0M----0M------------------------------||
--------0M-0M-0M----0M----12-12-12.-----------------||


---------------------------------------------------|
---------------------------------------------------|
o--------------------------------------------------|
o--------------------------------------------------|
---------------------------------------------------|
-0M-0M-------0M----0M----0M-0M-------0M----0M-0M---|
-0M-0M-------0M----0M----0M-0M-------0M----0M-0M---|


----------------------------------------------------|
----------------------------------------------------|
----------------------------------------------------|
----------------------------------------------------|
----------------------------------------------------|
--------0M-0M-0M----0M----0M-0M-0M----0M----0M------|
--------0M-0M-0M----0M----0M-0M-0M----0M----0M------|


----------------------------------------------------|
----------------------------------------------------|
----------------------------------------------------|
----------------------------------------------------|
----------------------------------------------------|
--0M-0M-------0M----0M----0M-0M-------0M----0M-0M---|
--0M-0M-------0M----0M----0M-0M-------0M----0M-0M---|


---------------------------------------------------||
---------------------------------------------------||
--------------------------------------------------o||
--------------------------------------------------o||
---------------------------------------------------||
--------0M-0M-0M-0M-------0M-0M----0M-0M-----------||
--------0M-0M-0M-0M-------0M-0M----0M-0M----13-13--||


----------------------------------------|
----------------------------------------|
----------------------------------------|
--------------------------2.------------|
--------------------------1.------------|
-----------0L-0M----0M------------------|
--1b-------1L-1M----1M------------------|


--------------------------------------------------------x-------------------|
-----------------------------------------------------------x----------------|
--------------------------------------------------------------x-------------|
-----------------------------------------------------------------x----------|
--------------------------------------------------------------------x-------|
--------------------0L----0M----------0M----------0M-------------------x----|
--1b----------------1L----1M----------1M----------1M------------------------|


----------------------------------------|
----------------------------------------|
----------------------------------------|
--------------------------2.------------|
--------------------------1.------------|
-----------0L-0M----0M------------------|
--1b-------1L-1M----1M------------------|


----------------------------------------|----------------|
----------------------------------------|----------------|
----------------------------------------|----------------|
----------------------------------------|----------------|
----------------------------------------|----------------|
-----------0L-0M----0M------------------|----------------|
--1b-------1L-1M----1M----0--0--0--0----|--1--1--1--1----|


----------------------------------------|----------------|
----------------------------------------|----------------|
----------------------------------------|----------------|
----------------------------------------|----------------|
----------------------------------------|----------------|
----------------------------------------|----------------|
--1--------1L-1-----1-----0--1--3--4----|--0--0--0--0----|


----------------------------------------|----------------|
----------------------------------------|----------------|
----------------------------------------|----------------|
----------------------------------------|----------------|
----------------------------------------|--0-------------|
----------------------------------------|--0-------------|
--12s------12L12----12----11-11-11-11---|--0-------------|


----------------------------|----------------------------|
----------------------------|----------------------------|
----------------------------|----------------------------|
-----------------------3L---|--3--3--3--3--3--3-----3----|
-----------------------3L---|--3--3--3--3--3--3-----3----|
-----------------------1L---|--1--1--1--1--1--1-----1----|
----------------------------|----------------------------|


----------------------------|----------------------------|
----------------------------|----------------------------|
----------------------------|----------------------------|
--3--3--3--3--3--3--3--3----|----------------------------|
--3--3--3--3--3--3--3--3----|--0--0--0--0--0--0-----0----|
--1--1--1--1--1--1--1--1----|--0--0--0--0--0--0-----0----|
----------------------------|--0--0--0--0--0--0-----0----|


----------------------------|----------------------------|
----------------------------|----------------------------|
----------------------------|----------------------------|
-----------------------6L---|--6--6--6--6--6--6-----6----|
--3--3--3--3--3--3--3--5L---|--5--5--5--5--5--5-----5----|
--3--3--3--3--3--3--3--4L---|--4--4--4--4--4--4-----4----|
--3--3--3--3--3--3--3--5L---|--5--5--5--5--5--5-----5----|


----------------------------|----------------------------|
----------------------------|----------------------------|
----------------------------|----------------------------|
--6--6--6--6--6--6--6--6----|--3--3-----3--3--3-----3----|
--5--5--5--5--5--5--5--5----|--3--3-----3--3--3-----3----|
--4--4--4--4--4--4--4--4----|--1--1-----1--1--1-----1----|
--5--5--5--5--5--5--5--5----|----------------------------|


----------------------------|----------------------------|
----------------------------|----------------------------|
----------------------------|----------------------------|
--5--5-----5--5--5--5--5----|----------------------------|
--5--5-----5--5--5--5--5----|--0--0-----0--0--0-----0----|
--3--3-----3--3--3--3--3----|--0--0-----0--0--0-----0----|
----------------------------|--0--0-----0--0--0-----0----|


----------------------------|----------------------------|
----------------------------|----------------------------|
----------------------------|----------------------------|
----------------------------|----------------------------|
--3--3--3--3--3--3--3--3----|--5--5--5--5--5--5-----5----|
--3--3--3--3--3--3--3--3----|--5--5--5--5--5--5-----5----|
--3--3--3--3--3--3--3--3----|--5--5--5--5--5--5-----5----|


----------------------------|----------------------------|
----------------------------|----------------------------|
----------------------------|----------------------------|
----------------------------|--3--3--3--3--3--3-----3----|
--5--5--5--5--5--5--3--3----|--3--3--3--3--3--3-----3----|
--5--5--5--5--5--5--3--3----|--1--1--1--1--1--1-----1----|
--5--5--5--5--5--5--3--3----|----------------------------|


----------------------------||----------------5----------|
----------------------------||-------------5-------------|
----------------------------||o---------5----------------|
--3--3--3--3--3--3--3--3----||o------7-------------------|
--3--3--3--3--3--3--3--3----||----7----------------------|
--1--1--1--1--1--1--1--1----||-5-------------------------|
----------------------------||---------------------------|


-----------------8----------|-----------------1----------|
--------------8-------------|--------------1-------------|
-----------9----------------|-----------2----------------|
--------10------------------|--------3-------------------|
-----10---------------------|-----3----------------------|
--8-------------------------|--1-------------------------|
----------------------------|----------------------------|


-----------------1---------||-----------------9L---------|--9----|
--------------1------------||--------------9-------------|-------|
-----------2--------------o||-----------12---------------|-------|
--------3-----------------o||--------11------------------|-------|
-----3---------------------||-----10---------------------|-------|
--1------------------------||--9-------------------------|-------|
---------------------------||----------------------------|-------|


----------------------------------------------------|
----------------------------------------------------|
----------------------------------------------------|
----------------------------------------------------|
----------------------------------------------------|
--6M----------------6M-6M-6M----------6L------------|
--0M----------------0M-0M-0M----------0L------------|


----------------------------------------------------|
----------------------------------------------------|
----------------------------------------------------|
----------------------------------------------------|
----------------------------------------------------|
--6M------------------------------------------------|
--0M----0M-0M-13M13M0M-0M-13M13M0M-0M-13M13M0M-0M---|


----------------------------------------------------|
----------------------------------------------------|
----------------------------------------------------|
----------------------------------------------------|
----------------------------------------------------|
--6M----------------6M-6M-6M----------6-------------|
--0M----------------0M-0M-0M----------0-------------|


----------------------------------------------------|
----------------------------------------------------|
----------------------------------------------------|
----------------------------------------------------|
----------------------------------------------------|
--------------5h-8h-5h-0--6h-9h-6h-0----------------|
--------0M-0M-------------------------1-----4-------|


----------------------------------------------------|
----------------------------------------------------|
----------------------------------------------------|
----------------------------------------------------|
----------------------------------------------------|
--6M----------------6M-6M-6M----------6L------------|
--0M----------------0M-0M-0M----------0L------------|


--------------------------------------------------------------------------x-----
--------------------------------------------------------------------------------
--------------------------------------------------------------------------------
--------------------------------------------------------------------------------
--------------------------------------------------------------------------------
--6M----------------------------------------------------------------------------
--0M----------------0M-------0M-------1b----------------------------------------


--------------------------------------------------------------------|
x-------------------------------------------------------------------|
------x-------------------------------------------------------------|
------------x-------------------------------------------------------|
------------------x-------------------------------------------------|
------------------------x-------------------------------------------|
------------------------------3b------------------------------------|


----------------------------------------------------|----------------|
----------------------------------------------------|----------------|
----------------------------------------------------|----------------|
----------------------------------------------------|----------------|
----------------------------------------------------|----------------|
--6M----------------6M-6M-6M----------6-------------|----------------|
--0M----------------0M-0M-0M----------0-------------|-----------12s--|


----------------------------|
----------------------------|
----------------------------|
----------------------------|
----------------------------|
-----------------1----------|
--0--1--4--0L-0-----2--0----|


----------------------------------------------------|
----------------------------------------------------|
--------------------------------------10------------|
----------------------------------------------------|
--------------------3M----------------7-------------|
--3-----------0M----3M----0M-0M-0M-0M---------------|
--------4-----0M----3M----0M-0M-0M-0M---------------|


----------------------------|----------------|
----------------------------|----------------|
----------------------------|----------------|
----------------------------|----------------|
----------------------------|-----------3----|
-----------------1----------|--3-----0M-3----|
--0--1--4--0L-0-----2--0----|-----4--0M-3----|


----------------------------------------------------|
----------------------------------------------------|
----------------------------------------------------|
----------------------------------------------------|
----------------------------------------------------|
--0M----0M-0M---------------------------------------|
--0M----0M-0M---------------------------------------|


----------------------------------------------------|
----------------------------------------------------|
----------------------------------------------------|
----------------------------------------------------|
----------------------------------------------------|
--0M-0M-0M----------0M-0M-0.----------0M----0M------|
--0M-0M-0M----------0M-0M-0.----------0M----0M------|


----------------------------|
----------------------------|
----------------------------|
----------------------------|
----------------------------|
--0M-0M---------------------|
--0M-0M---------------------|


----------------------------------------------------|
----------------------------------------------------|
----------------------------------------------------|
----------------------------------------------------|
----------------------------------------------------|
--0M-0M-0M----------0M-0M-0.----------0M----0M------|
--0M-0M-0M----------0M-0M-0.----------0M----0M------|


----------------------------------------------------|
----------------------------------------------------|
----------------------------------------------------|
----------------------------------------------------|
----------------------------------------------------|
--0M-0M-0L----0M------------------------------------|
--0M-0M-0L----0M------------------------------------|


----------------------------------------------------|
----------------------------------------------------|
----------------------------------------------------|
----------------------------------------------------|
----------------------------------------------------|
--0M-0M-0M----------0M-0M-0.----------0M----0M------|
--0M-0M-0M----------0M-0M-0.----------0M----0M------|


----------------------------|----------------------------|
----------------------------|----------------------------|
----------------------------|----------------------------|
----------------------------|----------------------------|
--8--8--8--8--8--8-----8----|--8--8--8--8----------------|
--8--8--8--8--8--8-----8----|--8--8--8--8----------------|
--8--8--8--8--8--8-----8----|--8--8--8--8--8--10-8--7----|


----------------------------------------------------|
----------------------------------------------------|
----------------------------------------------------|
----------------------------------------------------|
----------------------------------------------------|
--0.----------------0M-0M-0.----------0.------------|
--0.----------------0M-0M-0.----------0.------------|


----------------------------------------------------|
----------------------------------------------------|
----------------------------------------------------|
----------------------------------------------------|
----------------------------------------------------|
----------------------------------------------------|
--------------------13-13-16-16-0--0--13-13-12-12---|


----------------------------------------------------|
----------------------------------------------------|
----------------------------------------------------|
----------------------------------------------------|
----------------------------------------------------|
--0.----------------0M-0M-0.----------0.------------|
--0.----------------0M-0M-0.----------0.------------|


----------------------------------------------------|
----------------------------------------------------|
----------------------------------------------------|
----------------------------------------------------|
----------------------------------------------------|
--------------5h-8h-5h-0--6h-9h-6h-0----------------|
--------0M-0M-------------------------1-----4-------|


----------------------------------------------------|
----------------------------------------------------|
----------------------------------------------------|
----------------------------------------------------|
----------------------------------------------------|
--0.----------------0M-0M-0.----------0.------------|
--0.----------------0M-0M-0.----------0.------------|


----------------------------------------------------|
----------------------------------------------------|
----------------------------------------------------|
----------------------------------------------------|
----------------------------------------------------|
----------------------------------------------------|
--------0--0--13-13-0--0--16-16-0--0--13-13-12-12---|


----------------------------------------------------|
----------------------------------------------------|
----------------------------------------------------|
----------------------------------------------------|
----------------------------------------------------|
--0.----------------0M-0M-0.----------------0M-0M---|
--0.----------------0M-0M-0.----------------0M-0M---|


----------------------------------------------------|
----------------------------------------------------|
----------------------------------------------------|
----------------------------------------------------|
----------------------------------------------------|
--------------5h-8h-5h-0--6h-9h-6h-0----------------|
--------0M-0M-------------------------1-----4-------|


----------------------------------------------------|
----------------------------------------------------|
----------------------------------------------------|
----------------------------------------------------|
----------------------------------------------------|
--0.----------------0M-0M-0.----------0.------------|
--0.----------------0M-0M-0.----------0.------------|


----------------------------------------------------|
----------------------------------------------------|
----------------------------------------------------|
----------------------------------------------------|
----------------------------------------------------|
----------------------------------------------------|
--------0--0--13-13-0--0--16-16-0--0--13-13-12-12---|


----------------------------------------------------|
----------------------------------------------------|
----------------------------------------------------|
----------------------------------------------------|
----------------------------------------------------|
--0.----------------0M-0M-0.----------0.------------|
--0.----------------0M-0M-0.----------0.------------|


----------------------------------------------------|
----------------------------------------------------|
----------------------------------------------------|
----------------------------------------------------|
----------------------------------------------------|
--------------5h-8h-5h-0--6h-9h-6h-0----------------|
--------0M-0M-------------------------1-----4-------|


----------------------------------------------------|
----------------------------------------------------|
----------------------------------------------------|
----------------------------------------------------|
----------------------------------------------------|
--0.------------------------------------------------|
--0.----------------0M-0M-0M-0--------0.------------|


----------------------------------------------------|----------------|
----------------------------------------------------|----------------|
----------------------------------------------------|----------------|
----------------------------------------------------|----------------|
----------------------------------------------------|----------------|
----------------------------------------------------|--0.------------|
--------0--0--13-13-0--0--16-16-0--0--13-13-12-12---|--0.-------0.---|


----------------------------------------------------|
----------------------------------------------------|
----------------------------------------------------|
----------------------------------------------------|
----------------------------------------------------|
--------------5h-8h-5h-0--6h-9h-6h-0----------------|
--------0M-0M-------------------------1-----4-------|


----------------------------------------------------|
----------------------------------------------------|
----------------------------------------------------|
----------------------------------------------------|
----------------------------------------------------|
--0.----------------0M-0M-0.----------0.------------|
--0.----------------0M-0M-0.----------0.------------|


----------------------------------------------------|
----------------------------------------------------|
----------------------------------------------------|
----------------------------------------------------|
----------------------------------------------------|
----------------------------------------------------|
--------0--0--13-13-0--0--16-16-0--0--13-13-12-12---|


----------------------------------------------------|
----------------------------------------------------|
----------------------------------------------------|
----------------------------------------------------|
----------------------------------------------------|
--0.----------------0M-0M-0.----------0.------------|
--0.----------------0M-0M-0.----------0.------------|


----------------------------------------------------||
----------------------------------------------------||
----------------------------------------------------||
----------------------------------------------------||
----------------------------------------------------||
--------------5h-8h-5h-0--6h-9h-6h-0----------------||
--------0M-0M-------------------------1-----4-------||







Guitar 2

Legend
L - tied note
x - dead note
h - hammer on/pull off
b - bend
s - slide
~ - vibrato
g - ghost note
> - accentuated note
t - trill
M - palm mute
. - staccato
P - popping (bass)
S - slapping (bass)
+ - tapping
W - wide vibrato
< - fade in
w - whammy bar
= - tremolo picking
v - brush up
^ - brush down
V - pick stroke up
n - pick stroke down


E |-------||-------12------------------|-------|--15L--|--15---|
B |-------||----------------12---------|--13---|-------|-------|
G |-------||o--------------------------|-------|-------|-------|
D |-------||o--------------------------|-------|-------|-------|
A |-------||---------------------------|-------|-------|-------|
E |-------||---------------------------|-------|-------|-------|
A |-------||---------------------------|-------|-------|-------|


--------12------------------|-----------------15---------|-------|------||
-----------------12---------|--13L---------13------------|--9L---|--9---||
----------------------------|----------------------------|-------|-----o||
----------------------------|----------------------------|-------|-----o||
----------------------------|----------------------------|-------|------||
----------------------------|----------------------------|-------|------||
----------------------------|----------------------------|-------|------||


----------------------------|----------------------------|
-----------6----------------|-----6-----------------6----|
--------9-----9-------------|--9-----9-----------9-------|
-----7-----------7-----7----|-----------7-----7----------|
--0-----------------0-------|--------------0-------------|
----------------------------|----------------------------|
----------------------------|----------------------------|


----------------------------|
-----------6----------------|
--------9-----9-------------|
-----7-----------7-----7----|
--0-----------------0-------|
----------------------------|
----------------------------|


----------------------------------------------------||
--------6-------------------------------------------||
--9-----------9-----------------------9-------------||
--------------------7-----------7-------------------||
--------------------------0-------------------------||
----------------------------------------------------||
----------------------------------------------------||


---------------------------------------------------|
---------------------------------------------------|
o--------------------------------------------------|
o--------------------------------------------------|
-0M-0M-12M12M0M-0M-0M-0M-0M-0M-13M13M0M-0M-0M-0M---|
---------------------------------------------------|
---------------------------------------------------|


----------------------------------------------------|
----------------------------------------------------|
----------------------------------------------------|
----------------------------------------------------|
--10M10M0M-0M-0M-0M-12M12M13M13M12M12M10M10M12M12M--|
----------------------------------------------------|
----------------------------------------------------|


----------------------------------------------------|
----------------------------------------------------|
----------------------------------------------------|
----------------------------------------------------|
--0M-0M-12M12M0M-0M-0M-0M-0M-0M-13M13M0M-0M-0M-0M---|
----------------------------------------------------|
----------------------------------------------------|


---------------------------------------------------||
---------------------------------------------------||
--------------------------------------------------o||
--------------------11M11M12M12M11M11M------------o||
--10M10M0M-0M-0M-0M-------------------13M13M12M12M-||
---------------------------------------------------||
---------------------------------------------------||


----------------------------------------------------|
----------------------------------------------------|
----------------------------------------------------|
----------------------------------------------------|
--0M-0M-12-12-0M-0M-0M-0M-0M-0M-13-13-0M-0M-0M-0M---|
----------------------------------------------------|
----------------------------------------------------|


----------------------------------------------------|
----------------------------------------------------|
----------------------------------------------------|
----------------------------------------------------|
--10-10-0M-0M-0M-0M-12-12-13-13-12-12-10-10-12-12---|
----------------------------------------------------|
----------------------------------------------------|


----------------------------------------------------|
----------------------------------------------------|
----------------------------------------------------|
----------------------------------------------------|
--0M-0M-12-12-0M-0M-0M-0M-0M-0M-12-12-0M-0M-0M-0M---|
----------------------------------------------------|
----------------------------------------------------|


----------------------------------------------------|
----------------------------------------------------|
----------------------------------------------------|
----------------------------------------------------|
--11-11-7M-7M-7M-7M-7-------------------------------|
----------------------------------------------------|
----------------------------------------------------|


--------12------------------|-----------------------15L--|--15L--|--15---|
-----------------12---------|--13L---------------13------|-------|-------|
----------------------------|----------------------------|-------|-------|
----------------------------|----------------------------|-------|-------|
----------------------------|----------------------------|-------|-------|
----------------------------|----------------------------|-------|-------|
----------------------------|----------------------------|-------|-------|


--------12------------------|-----------------15---------|-------|-------|
-----------------12---------|--13L---------13-------9L---|--9L---|--9----|
----------------------------|----------------------------|-------|-------|
----------------------------|----------------------------|-------|-------|
----------------------------|----------------------------|-------|-------|
----------------------------|----------------------------|-------|-------|
----------------------------|----------------------------|-------|-------|


-------|----------------||---------------------------------------------------|
-------|----------------||---------------------------------------------------|
-------|----------------||o--------------------------------------------------|
-------|----------------||o--------------------------------------------------|
-------|----------------||-0M-0M-12M12M0M-0M-0M-0M-0M-0M-13M13M0M-0M-0M-0M---|
-------|-----------0.---||---------------------------------------------------|
-------|-----------0.---||---------------------------------------------------|


----------------------------------------------------|
----------------------------------------------------|
----------------------------------------------------|
----------------------------------------------------|
--10M10M0M-0M-0M-0M-12M12M13M13M12M12M10M10M12M12M--|
----------------------------------------------------|
----------------------------------------------------|


----------------------------------------------------|
----------------------------------------------------|
----------------------------------------------------|
----------------------------------------------------|
--0M-0M-12-12-0M-0M-0M-0M-0M-0M-13-13-0M-0M-0M-0M---|
----------------------------------------------------|
----------------------------------------------------|


---------------------------------------------------||-------|-------|-------|
---------------------------------------------------||-------|-------|-------|
--------------------------------------------------o||-------|-------|-------|
--------------------11-11-12-12-11-11-12h11-------o||-------|-------|-------|
--10-10-0M-0M-0M-0M-------------------------13h12--||-------|-------|-------|
---------------------------------------------------||-------|-------|-------|
---------------------------------------------------||-------|-------|-------|


-------|----------------|----------------------------------------|-------|
-------|----------------|----------------------------------------|-------|
-------|----------------|----------------------------------------|-------|
-------|----------------|----------------------------------------|-------|
-------|----------------|----------------------------------------|-------|
-------|----------------|----------------------------------------|-------|
-------|--0--0--0--0----|--0--------0L-0-----0-----0--1--3--4----|-------|


-------|-------|-----------------------15L--|--15L--|--15---|
-------|-------|----------------------------|-------|-------|
-------|-------|----------------------------|-------|-------|
-------|-------|----------------------------|-------|-------|
-------|-------|----------------------------|-------|-------|
-------|-------|----------------------------|-------|-------|
-------|-------|----------------------------|-------|-------|


--------12------------------|-----------------15---------|-------|-------|
-----------------12---------|--13L---------13-------9L---|--9L---|--9----|
----------------------------|----------------------------|-------|-------|
----------------------------|----------------------------|-------|-------|
----------------------------|----------------------------|-------|-------|
----------------------------|----------------------------|-------|-------|
----------------------------|----------------------------|-------|-------|


--17---|--15---|--12---|--12b------10-12-10-12------|
-------|-------|-------|----------------------------|
-------|-------|-------|----------------------------|
-------|-------|-------|----------------------------|
-------|-------|-------|----------------------------|
-------|-------|-------|----------------------------|
-------|-------|-------|----------------------------|


--------------------15L-----|--15---|--------------------15L-----|--15b--||
--12-------13---------------|-------|--12-------13---------------|-------||
----------------------------|-------|----------------------------|-------||
----------------------------|-------|----------------------------|-------||
----------------------------|-------|----------------------------|-------||
----------------------------|-------|----------------------------|-------||
----------------------------|-------|----------------------------|-------||


------|-------|-------|------||-------|-------|-------|-------|-------|-------|
------|-------|-------|------||-------|-------|-------|-------|-------|-------|
o-----|-------|-------|-----o||-------|-------|-------|-------|-------|-------|
o-----|-------|-------|-----o||-------|-------|-------|-------|-------|-------|
------|-------|-------|------||-------|-------|-------|-------|-------|-------|
------|-------|-------|------||-------|-------|-------|-------|-------|-------|
------|-------|-------|------||-------|-------|-------|-------|-------|-------|


----------------------------|----------------------------|
-----------6----------------|-----6-----------------6----|
--------9-----9-------------|--9-----9-----------9-------|
-----7-----------7-----7----|-----------7-----7----------|
--0-----------------0-------|--------------0-------------|
----------------------------|----------------------------|
----------------------------|----------------------------|


----------------------------|----------------------------|-------|-------|
-----------6----------------|-----6-----------------6----|-------|-------|
--------9-----9-------------|--9-----9-----------9-------|-------|-------|
-----7-----------7-----7----|-----------7-----7----------|-------|-------|
--0-----------------0-------|--------------0-------------|-------|-------|
----------------------------|----------------------------|-------|-------|
----------------------------|----------------------------|-------|-------|


-------|-------|----------------------------------------------------|
-------|-------|----------------------------------------------------|
-------|-------|----------------------------------------------------|
-------|-------|----------------------------------------------------|
-------|-------|----------------------------------------------------|
-------|-------|--0M----0M-0M-0M----0M----0M----0M----0M----0M------|
-------|-------|--0M----0M-0M-1M----1M----1M----1M----1M----1M------|


----------------------------------------------------|
----------------------------------------------------|
----------------------------------------------------|
----------------------------------------------------|
----------------------------------------------------|
--0M-0M-0M----0M----0M-0M-0M----0M----0M----0M------|
--0M-0M-1M----1M----0M-0M-1M----1M----0M----0M------|


----------------------------|
----------------------------|
----------------------------|
----------------------------|
----------------------------|
--0M-0M-0M-0M-0M-0M-0M-0M---|
--0M-0M-1M-1M-1M-1M-1M-1M---|


----------------------------------------------------|
----------------------------------------------------|
----------------------------------------------------|
----------------------------------------------------|
----------------------------------------------------|
--0M-0M-0M----0M----0M-0M-0M----0M----0M----0M------|
--0M-0M-1M----1M----0M-0M-1M----1M----0M----0M------|


----------------------------|
----------------------------|
----------------------------|
----------------------------|
----------------------------|
--0M-0M-0M-0M-0M-0M-0M-0M---|
--0M-0M-0M-0M-0M-0M-0M-0M---|


----------------------------------------------------|
----------------------------------------------------|
----------------------------------------------------|
----------------------------------------------------|
----------------------------------------------------|
--0M-0M-0M----------0M-0M-0.----------0M----0M------|
--0M-0M-0M----------0M-0M-0.----------0M----0M------|


--------------------15L-----|--15b--|----------------------------|
--12-------13---------------|-------|-----------6----------------|
----------------------------|-------|--------9-----9-------------|
----------------------------|-------|-----7-----------7-----7----|
----------------------------|-------|--0-----------------0-------|
----------------------------|-------|----------------------------|
----------------------------|-------|----------------------------|


----------------------------|----------------------------|
-----6-----------------6----|-----------6----------------|
--9-----9-----------9-------|--------9-----9-------------|
-----------7-----7----------|-----7-----------7-----7----|
--------------0-------------|--0-----------------0-------|
----------------------------|----------------------------|
----------------------------|----------------------------|


----------------------------|----------------------------|
-----6-----------------6----|-----------6----------------|
--9-----9-----------9-------|--------9-----9-------------|
-----------7-----7----------|-----7-----------7-----7----|
--------------0-------------|--0-----------------0-------|
----------------------------|----------------------------|
----------------------------|----------------------------|


----------------------------|----------------------------|
-----6-----------------6----|-----------6----------------|
--9-----9-----------9-------|--------9-----9-------------|
-----------7-----7----------|-----7-----------7-----7----|
--------------0-------------|--0-----------------0-------|
----------------------------|----------------------------|
----------------------------|----------------------------|


----------------------------|----------------------------|
-----6-----------------6----|-----------6----------------|
--9-----9-----------9-------|--------9-----9-------------|
-----------7-----7----------|-----7-----------7-----7----|
--------------0-------------|--0-----------------0-------|
----------------------------|----------------------------|
----------------------------|----------------------------|


----------------------------|----------------------------|
-----6-----------------6----|-----------6----------------|
--9-----9-----------9-------|--------9-----9-------------|
-----------7-----7----------|-----7-----------7-----7----|
--------------0-------------|--0-----------------0-------|
----------------------------|----------------------------|
----------------------------|----------------------------|


----------------------------|----------------------------|
-----6-----------------6----|-----------6----------------|
--9-----9-----------9-------|--------9-----9-------------|
-----------7-----7----------|-----7-----------7-----7----|
--------------0-------------|--0-----------------0-------|
----------------------------|----------------------------|
----------------------------|----------------------------|


----------------------------|----------------------------|
-----6-----------------6----|-----------6----------------|
--9-----9-----------9-------|--------9-----9-------------|
-----------7-----7----------|-----7-----------7-----7----|
--------------0-------------|--0-----------------0-------|
----------------------------|----------------------------|
----------------------------|----------------------------|


----------------------------|----------------------------|
-----6-----------------6----|-----------6----------------|
--9-----9-----------9-------|--------9-----9-------------|
-----------7-----7----------|-----7-----------7-----7----|
--------------0-------------|--0-----------------0-------|
----------------------------|----------------------------|
----------------------------|----------------------------|


----------------------------|----------------------------|
-----6-----------------6----|-----------6----------------|
--9-----9-----------9-------|--------9-----9-------------|
-----------7-----7----------|-----7-----------7-----7----|
--------------0-------------|--0-----------------0-------|
----------------------------|----------------------------|
----------------------------|----------------------------|


----------------------------||
-----6-----------------6----||
--9-----9-----------9-------||
-----------7-----7----------||
--------------0-------------||
----------------------------||
----------------------------||




Guitar 3

Legend
L - tied note
x - dead note
h - hammer on/pull off
b - bend
s - slide
~ - vibrato
g - ghost note
> - accentuated note
t - trill
M - palm mute
. - staccato
P - popping (bass)
S - slapping (bass)
+ - tapping
W - wide vibrato
< - fade in
w - whammy bar
= - tremolo picking
v - brush up
^ - brush down
V - pick stroke up
n - pick stroke down


E |-------||------|-------|-------|-------|-------|-------|-------|------||
B |-------||------|-------|-------|-------|-------|-------|-------|------||
G |-------||o-----|-------|-------|-------|-------|-------|-------|-----o||
D |-------||o-----|-------|-------|-------|-------|-------|-------|-----o||
A |-------||------|-------|-------|-------|-------|-------|-------|------||
E |-------||------|-------|-------|-------|-------|-------|-------|------||
A |-------||------|-------|-------|-------|-------|-------|-------|------||


-------|-------|-------|-------||------|-------|-------|------||-------|-------|
-------|-------|-------|-------||------|-------|-------|------||-------|-------|
-------|-------|-------|-------||o-----|-------|-------|-----o||-------|-------|
-------|-------|-------|-------||o-----|-------|-------|-----o||-------|-------|
-------|-------|-------|-------||------|-------|-------|------||-------|-------|
-------|-------|-------|-------||------|-------|-------|------||-------|-------|
-------|-------|-------|-------||------|-------|-------|------||-------|-------|


-------|-------|-------|-------|-------|-------|-------|-------|-------|-------|
-------|-------|-------|-------|-------|-------|-------|-------|-------|-------|
-------|-------|-------|-------|-------|-------|-------|-------|-------|-------|
-------|-------|-------|-------|-------|-------|-------|-------|-------|-------|
-------|-------|-------|-------|-------|-------|-------|-------|-------|-------|
-------|-------|-------|-------|-------|-------|-------|-------|-------|-------|
-------|-------|-------|-------|-------|-------|-------|-------|-------|-------|


-------|-------||------|-------|-------|------||-------|-------|-------|-------|
-------|-------||------|-------|-------|------||-------|-------|-------|-------|
-------|-------||o-----|-------|-------|-----o||-------|-------|-------|-------|
-------|-------||o-----|-------|-------|-----o||-------|-------|-------|-------|
-------|-------||------|-------|-------|------||-------|-------|-------|-------|
-------|-------||------|-------|-------|------||-------|-------|-------|-------|
-------|-------||------|-------|-------|------||-------|-------|-------|-------|


-------|-------|-------|-------|--5----|--8L----------------8-------|-------|
-------|-------|-------|-------|--5----|--8L----------------8-------|-------|
-------|-------|-------|-------|--5----|--9L----------------9-------|-------|
-------|-------|-------|-------|--7----|--10L---------------10------|-------|
-------|-------|-------|-------|--7----|--10L---------------10------|-------|
-------|-------|-------|-------|--5----|--8L----------------8-------|-------|
-------|-------|-------|-------|-------|----------------------------|-------|


-------|-------|-------|-------|-------|-------|-------|-------|-------|-------|
-------|-------|-------|-------|-------|-------|-------|-------|-------|-------|
-------|-------|-------|-------|-------|-------|-------|-------|-------|-------|
-------|-------|-------|-------|-------|-------|-------|-------|-------|-------|
-------|-------|-------|-------|-------|-------|-------|-------|-------|-------|
-------|-------|-------|-------|-------|-------|-------|-------|-------|-------|
-------|-------|-------|-------|-------|-------|-------|-------|-------|-------|


-------|-------|-------||------|-------|-------|------||-------|-------|-------|
-------|-------|-------||------|-------|-------|------||-------|-------|-------|
-------|-------|-------||o-----|-------|-------|-----o||-------|-------|-------|
-------|-------|-------||o-----|-------|-------|-----o||-------|-------|-------|
-------|-------|-------||------|-------|-------|------||-------|-------|-------|
-------|-------|-------||------|-------|-------|------||-------|-------|-------|
-------|-------|-------||------|-------|-------|------||-------|-------|-------|


-------|-------|-------|-------|-------|-------|-------|-------|-------|-------|
-------|-------|-------|-------|-------|-------|-------|-------|-------|-------|
-------|-------|-------|-------|-------|-------|-------|-------|-------|-------|
-------|-------|-------|-------|-------|-------|-------|-------|-------|-------|
-------|-------|-------|-------|-------|-------|-------|-------|-------|-------|
-------|-------|-------|-------|-------|-------|-------|-------|-------|-------|
-------|-------|-------|-------|-------|-------|-------|-------|-------|-------|


-------|-------|-------|-------|-------|-------|-------|-------|-------|-------|
-------|-------|-------|-------|-------|-------|-------|-------|-------|-------|
-------|-------|-------|-------|-------|-------|-------|-------|-------|-------|
-------|-------|-------|-------|-------|-------|-------|-------|-------|-------|
-------|-------|-------|-------|-------|-------|-------|-------|-------|-------|
-------|-------|-------|-------|-------|-------|-------|-------|-------|-------|
-------|-------|-------|-------|-------|-------|-------|-------|-------|-------|


-------|-------|-------|-------|-------|-------|-------|-------|-------|-------|
-------|-------|-------|-------|-------|-------|-------|-------|-------|-------|
-------|-------|-------|-------|-------|-------|-------|-------|-------|-------|
-------|-------|-------|-------|-------|-------|-------|-------|-------|-------|
-------|-------|-------|-------|-------|-------|-------|-------|-------|-------|
-------|-------|-------|-------|-------|-------|-------|-------|-------|-------|
-------|-------|-------|-------|-------|-------|-------|-------|-------|-------|


-------|-------|-------|-------|-------|-------|-------|-------|-------||
-------|-------|-------|-------|-------|-------|-------|-------|-------||
-------|-------|-------|-------|-------|-------|-------|-------|-------||
-------|-------|-------|-------|-------|-------|-------|-------|-------||
-------|-------|-------|-------|-------|-------|-------|-------|-------||
-------|-------|-------|-------|-------|-------|-------|-------|-------||
-------|-------|-------|-------|-------|-------|-------|-------|-------||


Suggest correction
Creating personal tab
Creating personal tab
You can edit any tab online and save it as your Personal.

You can edit, replace or remove any tab part or add personal notes – all changes will be seen only by you.

Personal tabs can be accessed anytime from any device, even offline.
Learn more »
Give kudos to tab author, rate the tab!
1 2 3 4 5
comments
print report bad tab
2 comments total.
0 reply
rockingwithbu 10 Jun 19, 2017 10:19 AM

Awesome! But I only have 6 string :T will it still sound right?

0 reply
Pvt Pancake 698 Jun 21, 2017 12:12 AM

It depends what parts you're playing, you should be good for most of the rhythm

guest
You may want to rate the tab now too:
select rating
Wanna post a correction for this tab? Suggest correction