Oops, an error
Loading. Please wait.

What I Never Learned In Study Hall Tab

version 1
version 1

Whole song

Interactive

7,523 views 27 this week
4 commentsread comments
1 2 3 4 5
excellent!
x 4
add to favorites
launch autoscroll
font size
0
reset
how to read this tab
guitar tuner
Autoscroll
slow
fast
+/-
esc
set tempo
stop
Help us to improve Ultimate-Guitar.com Take our survey!
×
Author
Difficulty
Tuning
intermediate
D A D G B E
WHAT I NEVER LEARNED IN STUDY HALL - ACOUSTIC VERSION
Arranged by: Caryll Aguit
If there's some error please inform me 
by sending it in my email: omygod_dude@yahoo.com

_____________________________________________________________________________
The tuning is Drop D

Intro

e|-----------------------------------------|
B|---6--8--8/9-8---------------------------|
G|---------------8--5-----8/10--8--5--8----|
D|---------------------6-------------------|
A|-----------------------------------------|
E|-----------------------------------------|


e|-------------------6/8--8--8--8--6-------|
B|----8/9--8-------------------------------|
G|-----------8--5--------------------------|
D|-6---------------6-----------------------| 
A|-----------------------------------------|
E|-----------------------------------------|   


Verse 1:

(Plucking goes like this)

                            c#m
e|--------------------------------------------------------------|
B|--------------------------------------------------------------|
G|-----------------6---------------------------6----------------|
D|-----6----6----6----6------6-----6---6----6-----6----6--------| 
A|--4----4-----4----------4-----4----4---4-----------4----------|
E|--------------------------------------------------------------|   

                            E#m
e|--------------------------------------------------------------|
B|--------------------------------------------------------------|
G|---------------------10-----------------------10--------------|
D|-----10----10-----10----10---10----10-----10-------10-----10--| 
A|--8-----8------8-------- --8-----8------8--------------8------|
E|--------------------------------------------------------------|  
      
                            D#m
e|--------------------------------------------------------------|
B|--------------------------------------------------------------|
G|-----------------8---------------------------8----------------|
D|-----8----8----8----8-----8-----8---8----8-----8----8---------| 
A|--6----6-----6---------6-----6----6---6-----------6-----------|
E|--------------------------------------------------------------|    



                  c#m
From the moment we started
                      E#m                    D#m
Every single thing I promised you I followed through 
                   c#m                           E#m                     D#m
And just like a pawn would, all the moves that I would make would be at your decree 
    c#m                           c#m                     Fm   c#m  
But every second spent with you has meant nothing at all
      D#m                                          Bbm 
And now the gloves are off let's tear apart all our poisoned memories
 Cm  C#m                D#m
I know I'm better off alone



Chorus:


              Fm               D#m
'Cause I'm six feet below this burning wreckage 
        c#m
of the life we used to know 
           G#m                D#m  
Now all the hope we had is dying



Verse 1:
  
                    
                       c#m
From the moment we started, 
                      E#m                    D#m
Every word you said made me feel that this was real
                c#m
But still I was guarded
                         E#m                    D#m
Not the first time I had fallen prey to this cliche'
   c#m                          c#m               Fm  C#m
Every second spent with you has meant nothing at all
  D#m                                      Fm       C#m
I'm left talking to myself where did I go wrong?
                  D#m                                Bbm
And now the gloves are off, let's disregard what I thought you meant to me
  Cm  C#m                
I know I'm better off alone



Chorus:



             Fm                 D#m
'Cause I'm six feet below this burning wreckage 
        c#m
of the life we used to know 
            G#m               D#m  
Now all the hope we had is dying
            Fm         
'Cause I'm six feet below 
              D#m
I hope you hear this message 
          c#m 
That to live is to let go 
           G#m               D#m
But still a part of me is dying



Bridge:
 


C#m                                  D#m
     I'm more alive; I'm over being broken
                   E#m
Time has healed all wounds
                                 D#m
I wish the scratches that you left on me
Were scars I left on you
 C#m                                    D#m
I turned my back on the person you've become
                                  E#m
And realized what it means to be forgotten
     D#m
Be forgotten
    C#m                                  D#m    
I turned my back on the person you've become
                                  Bbm
Now Realize how it feels to be forgotten
   Cm   C#m      D#m
So be forgotten



Chorus:


       Fm                 D#m
I'm six feet below this burning wreckage 
          C#m                   G#m  D#m
Of the life we used to know 

            Fm         
'Cause I'm six feet below 
              D#m
I hope you hear this message 
          c#m 
That to live is to let go 
           G#m               D#m
But still a part of me is dying


e|-----------------------------------------|
B|---6--8--8/9-8---------------------------|
G|---------------8--5-----8/10--8--5--8----|
D|---------------------6-------------------|
A|-----------------------------------------|
E|-----------------------------------------|

e|-----------------------------------------|
B|----8/9--8-------------------------------|
G|-----------8--5--------------------------|
D|-6---------------------------------------| 
A|-----------------------------------------|
E|-----------------------------------------|   
Suggest correction
comments
print report bad tab
4 comments total. Showing first comments.
0 reply
Pickles3356 10 wrote on March 13 2013, 09:57 pm

I'm 99% sure the tuning is drop C#.
e|--------------------------------------------------------------|
B|--------------------------------------------------------------|
G|-----------------5---------------------------5----------------|
D|-----6----6----6----6------6-----6---6----6-----6----6--------|
A|--4----4-----4----------4-----4----4---4-----------4----------|
E|--------------------------------------------------------------|
This is the correct pattern.
e|--------------------------------------------------------------|
B|--------------------------------------------------------------|
G|---------------------8-----------------------8----------------|
D|-----10----10-----10----10---10----10-----10-------10-----10--|
A|--8-----8------8-----------8-----8------8--------------8------|
E|--------------------------------------------------------------|
I might be wrong, but i think this is the correct part

0 reply
Pickles3356 10 wrote on March 13 2013, 09:58 pm

4 stars. Few mistakes, tuning is Drop C#

0 reply
carylljyc 74 wrote on March 25 2013, 02:06 am

Ohh... sorry sir cuz i learned this by ear. btw, thanks for the correction :D

guest
You may want to rate the tab now too:
select rating
Please do not post tabs as comments. Select "correction" instead!