Oops, an error
Loading. Please wait.

Youre Blessed Tab

4,043 views 9 this week
2 commentsread comments
1 2 3 4 5
x 10
add to favorites
launch autoscroll
font size
0
reset
how to read this tab
guitar tuner
×
Best way to learn
"Youre Blessed"
Autoscroll
slow
fast
+/-
esc
set tempo
stop
Author
Difficulty
Artist: Iceage
Song: "You're Blessed"
Album: New Brigade (2011)



Standard Tuning



Guitar (Johan)



INTRO:
e|------------------------------------------------|
B|-1-h3-------------------------------------------|
G|-0-----------------------2-h4-------------------|
D|-------------------------0----------------------|
A|------------------------------------------------|
E|------------------------------------------------|
+
e|------------------------------------------------|
B|------------------------------------------------|
G|-2-h4-------------------------------------------|
D|-x----------------------------------------------|
A|-3----------------------------------------------|
E|------------------------------------------------|
+
e|------------------------------------------------|
B|-1-h3-------------------------------------------|
G|-0-----------------------2-h4-------------------|
D|-------------------------0----------------------|
A|------------------------------------------------|
E|------------------------------------------------|
+
e|------------------------------------------------|
B|------------------------------------------------|
G|-2-h4-------------------------------------------|
D|-x----------------------------------------------|
A|-3-----------------------3--3--3--3--3--3--3--3-|
E|------------------------------------------------|



VERSE:
e|------------------------------------------------|
B|-1--1--1--1--3--3--5----------------------------|
G|-0--0--0--0--0--0--0-----2--2--2--2--4--4--5----|
D|-------------------------0--0--0--0--0--0--0----|
A|------------------------------------------------|
E|------------------------------------------------|
+
e|------------------------------------------------|
B|------------------------------------------------|
G|-2--2--2--2--4--4--5-----4--4--4--4--5--5--2----|
D|-x--x--x--x--x--x--x-----x--x--x--x--x--x--x----|
A|-3--3--3--3--3--3--3-----x--x--x--x--x--x--x----|
E|-------------------------0--0--0--0--0--0--0----|



CHORUS:
(slightly faster tempo)
e|------------------------------------------------|
B|-1--1--1--1--3--3--5----------------------------|
G|-0--0--0--0--0--0--0-----2--2--2--2--4--4--5----|
D|-------------------------0--0--0--0--0--0--0----|
A|------------------------------------------------|
E|------------------------------------------------|
+
e|------------------------------------------------|
B|------------------------------------------------|
G|-2--2--2--2--4--4--5-----4--4--4--4--5--5--2----|
D|-x--x--x--x--x--x--x-----x--x--x--x--x--x--x----|
A|-3--3--3--3--3--3--3-----x--x--x--x--x--x--x----|
E|-------------------------0--0--0--0--0--0--0----|



INTERLUDE:
e|(0)---------------------(0)---------------------|
B|-0-----------------------0----------------------|
G|-x-----------------------x----------------------|
D|-x-----------------------x----------------------|
A|-x-----------------------x----------------------|
E|-0-----------------------5----------------------|
+
e|(0)---------------------(0)---------------------|
B|-0-----------------------0-----------0---0---0--|
G|-x-----------------------x-----------0---0---0--|
D|-x-----------------------x-----------x---x---x--|
A|-x-----------------------x-----------x---x---x--|
E|-4-----------------------0-----------5---4---2--|
+
e|(0)---------------------(0)---------------------|
B|-0-----------------------0----------------------|
G|-x-----------------------x----------------------|
D|-x-----------------------x----------------------|
A|-x-----------------------x----------------------|
E|-0-----------------------5----------------------|
+
e|(0)---------------------(0)---------------------|
B|-0-----------------------0----------------------|
G|-x-----------------------x----------------------|
D|-x-----------------------x----------------------|
A|-x-----------------------x----------------------|
E|-4-----------------------0----------------------|



BRIDGE:
e|------------------------------------------------|
B|------------------------------------------------|
G|-4-----x--x--------------6-----x--x------6------|
D|-------------6-----x--x--------------6-------6--|
A|------------------------------------------------|
E|------------------------------------------------|
+
e|-------------------------4-----x--x--4---4---4--|
B|-------------------------0-----x--x--0---0---0--|
G|-------------------------6-----x--x--6---6---6--|
D|-------------6-----x--x-------------------------|
A|-7-----x--x-------------------------------------|
E|------------------------------------------------|
+
e|------------------------------------------------||
B|------------------------------------------------||
G|-------------------------6-----x--x------6------|| x 3
D|-------------6-----x--x--------------6-------6--||
A|-7-----x--x-------------------------------------||
E|------------------------------------------------||
+
e|------------------------------------------------|
B|------------------------------------------------|
G|------------------------------------------------|
D|-------6--6--6--6--6--6--6--6--6--6--6--6--6--6-|
A|-7----------------------------------------------|
E|------------------------------------------------|
+
e|------------------------------------------------|
B|------------------------------------------------|
G|------------------------------------------------|
D|-------9--9--9--9--9--9--9--9--9--9--9--9--9--9-|
A|-7----------------------------------------------|
E|------------------------------------------------|
+
e|------------------------------------------------|
B|------------------------------------------------|
G|------------------------------------------------|
D|-------6--6--6--6--6--6--6--6--6--6--6--6--6--6-|
A|-7----------------------------------------------|
E|------------------------------------------------|
+
e|------------------------------------------------|
B|------------------------------------------------|
G|------------------------------------------------|
D|-------9--9--9--9--9--9--9--9--9--9--9--9--9--9-|
A|-7----------------------------------------------|
E|------------------------------------------------|



OUTRO:
e|------------------------------------------------|
B|-1-h3-------------------------------------------|
G|-0-----------------------2-h4-------------------|
D|-------------------------0----------------------|
A|------------------------------------------------|
E|------------------------------------------------|
+
e|------------------------------------------------|
B|------------------------------------------------|
G|-2-h4-------------------------------------------|
D|-x----------------------------------------------|
A|-3----------------------------------------------|
E|------------------------------------------------|
+
e|------------------------------------------------|
B|-1-h3-------------------------------------------|
G|-0-----------------------2-h4-------------------|
D|-------------------------0----------------------|
A|------------------------------------------------|
E|------------------------------------------------|
+
e|------------------------------------------------|
B|------------------------------------------------|
G|-2-h4-------------------------------------------|
D|-x----------------------------------------------|
A|-3-----------------------3-----------0----------|
E|------------------------------------------------|
+
e|------------------------------------------------|
B|------------------------------------------------|
G|------------------------------------------------|
D|------------------------------------------------|
A|------------------------------------------------|
E|-3----------------------------------------------|



SONG STRUCTURE:
INTRO
VERSE x 2
CHORUS x 2
INTERLUDE
BRIDGE
VERSE x 2
CHORUS x 2
OUTRO



That's it. Just remember that it's played fast, loose and somewhat sloppy. Feel free to 
try different things with the bridge. Please leave comments or suggestions, corrections, 
requests, etc. Cheers!
-Bennyshambles78-


Suggest correction
comments
print report bad tab
2 comments total.
+4 reply
OldGregonthehil 10 May 06, 2013 09:22 PM

Would you be willing to put up some tabs from the new album like everything drifts or morals? Or even better, add some tabs of iceages compatriots Lower?

guest
You may want to rate the tab now too:
select rating
Wanna post a correction for this tab? Suggest correction