Oops, an error
Loading. Please wait.

A Question Of Heaven Bass

version 1
version 1

Whole song

Interactive

717 views 1 this week
no commentswrite comment
1 2 3 4 5
3 more votes to show rating
add to favorites
launch autoscroll
font size
0
reset
guitar tuner
×
Best way to learn
"A Question Of Heaven"
Autoscroll
slow
fast
+/-
esc
set tempo
stop
Author
This tab is close to 100% correct!!!

Tabbed By: Steve H.

Tuning: Eb, Ab, Db, Gb


Intro - 0:00

G---------------------------------------|x3
D----------------------------2----------|
A--7--7--5--5--3--3---------------------|
E--------------------3-2-3-2------------|

Verse 1 - 0:40

G---------------------------------------|x2
D--2-2-----4\0-----------5-4-5-4-2------|
A------0-2------7\3-5-3-----------------|
E---------------------------------------|

Pre-Verse 2

G---------------------------------------|
D---------------------------5-4-5-4-----|
A--7--7--7\5--5--5\3--5--3--------------|
E---------------------------------------|

Verse 2 - 1:19

G-----------------------------------------|
D-----------------------------------------|
A-------7-7-------7-9-------5-5-------5-7-|
E-0-000-----0-000-----0-000-----0-000-----|

G-----------------------------------------|
D-----------------------------------------|
A-------3-3-------5-5---------------------|
E-0-000-----0-000-----3-3-3-3-2-2-3-2-0---|

Verse 3 - 1:44

G---------------------------------------|x6
D---------------------------------------|
A---------------------------------------|
E--000--000--0--000--000--0--001--------|

Verse 2 - 2:05 x2

Verse 3 - 2:30 x4

Verse 2 - 2:44 x2


Bridge - 3:14

G-----------------------------7h9----------7h9p7-9-12~~|
D-------------------------7h9------------9-------------|
A------------------------------------------------------|
E--0-hold--0-hold--0-hold---------0-hold---------------|

Verse 4 - 3:29

G-------------------------------------------------|
D-------------------------------------------------|
A--------5---5-5h7------------5---5-5-5-5-5h7-----|
E--0--3-------------0---0--3-------------------0--|

Verse 5 - 4:41
                                   "Alternate Riffs"     
G-------------------------------------/--------\-------|\
D------------------------------------/----------\------| \Play Until 
A-----------------------------------5--5-5--5-5h7------| /    The End
E--0--0-0--0-hold--3--3-3--3-hold------------------0---|/
Suggest correction
Give kudos to tab author, rate the tab!
1 2 3 4 5
comments
print report bad tab
guest
You may want to rate the tab now too:
select rating
Wanna post a correction for this tab? Suggest correction