Oops, an error
Loading. Please wait.

A Question Of Heaven bass

version 3
version 3

Whole song

311 views 1 this week
no commentswrite comment
1 2 3 4 5
3 more votes to show rating
add to favorites
×
Save as Personal and add changes to this tab that will be seen only by you. Learn more ›
×
You can save this tab as Personal to edit and correct it or add notes. All changes will be seen only by you. Learn more »
launch autoscroll
font size
0
reset
guitar tuner
edit
Autoscroll
slow
fast
+/-
esc
set tempo
stop
 A Question For Heaven                               

Transcribed by an unregistered user


                                                                      Iced Earth
Bass



       W                   W                   W                 
F#||--------------------|-------------------|-------------------|
C#||*-------------------|-------------------|-------------------|
G#||*-------------------|-------------------|-------------------|
D#||--------------------|-------------------|-------------------|


  W                   W                   W                 
-------------------|-------------------|-------------------|
-------------------|-------------------|-------------------|
-------------------|-------------------|-------------------|
-------------------|-------------------|-------------------|


  W                 3x  W                   E  E  E  E  Q    Q     
--------------------||-------------------|-------------------7----|
-------------------*||-------------------|-----------7--9---------|
-------------------*||--7----------------|--L--L--L---------------|
--------------------||-------------------|------------------------|


  W                   H        Q    E  S S    W                 
-------------------|-------------------7-5-|-------------------|
-------------------|-----------------------|-------------------|
--5----------------|--L--------L----L------|--3----------------|
-------------------|-----------------------|-------------------|


  H        H           H        Q    E  E     W                 
--5-----------------|----------------------|-------------------|
--------------------|----------------------|-------------------|
-----------3--------|----------------------|--7----------------|
--------------------|--3--------2----3--2--|-------------------|


  E  E  E  E  Q    Q       W                   H        Q    E  S S  
-------------------7----|-------------------|-------------------5-7-|
-----------7--9---------|-------------------|-----------------------|
--L--L--L---------------|--5----------------|--L--------L----L------|
------------------------|-------------------|-----------------------|


  W                   H        H           H        Q    E  E   
-------------------|--5-----------------|----------------------|
-------------------|--------------------|----------------------|
--3----------------|-----------3--------|----------------------|
-------------------|--------------------|--3--------2----3--2--|


  W                   E  E  E  E  Q    Q       W                 
-------------------|-------------------7----|-------------------|
-------------------|-----------7--9---------|-------------------|
--7----------------|--L--L--L---------------|--5----------------|
-------------------|------------------------|-------------------|


  H        Q    E  S S    W                   H        H         
-------------------5-7-|-------------------|--5-----------------|
-----------------------|-------------------|--------------------|
--L--------L----L------|--3----------------|-----------3--------|
-----------------------|-------------------|--------------------|


  H        Q    E  E       E  S S S S Q.     Q       E  S S S S Q.     Q     
----------------------||--------------------------|-------------------------|
----------------------||*-------------------------|-------------------------|
----------------------||*-------------7------7----|-------------7------7----|
--3--------2----3--2--||---0--0-0-0-0-------------|--0--0-0-0-0-------------|


  E  S S S S Q.     Q       E  S S S S Q.     Q       E  S S S S Q.     Q     
-------------------------|-------------------------|-------------------------|
-------------------------|-------------------------|-------------------------|
-------------5------5----|-------------5------5----|-------------3------3----|
--0--0-0-0-0-------------|--0--0-0-0-0-------------|--0--0-0-0-0-------------|


  E  S S S S Q.     Q       E  E  E  E  E  E  E  E     
-------------------------|---------------------------||
-------------------------|--------------------------*||
-------------5------5----|--------------------------*||
--0--0-0-0-0-------------|--3--L--L--3--2--L--3--2---||


   S S S S S S E  H           S S S S S S Q    S S Q     5x
---------------------------|-----------------------------||
*--------------------------|----------------------------*||
*--------------------------|----------------------------*||
---0-0-0-0-0-0-0--L--------|--0-0-0-0-0-0-0----0-0-1-----||


  S S S S S S E  H           S S S S S S Q    S S Q     
--------------------------|----------------------------|
--------------------------|----------------------------|
--------------------------|----------------------------|
--0-0-0-0-0-0-0--L--------|--0-0-0-0-0-0-0----0-0-1----|


    E  S S S S Q.     Q       E  S S S S Q.     Q       E  S S S S Q.     Q     
|--------------------------|-------------------------|-------------------------|
|*-------------------------|-------------------------|-------------------------|
|*-------------7------7----|-------------7------7----|-------------5------5----|
|---0--0-0-0-0-------------|--0--0-0-0-0-------------|--0--0-0-0-0-------------|


  E  S S S S Q.     Q       E  S S S S Q.     Q       E  S S S S Q.     Q     
-------------------------|-------------------------|-------------------------|
-------------------------|-------------------------|-------------------------|
-------------5------5----|-------------3------3----|-------------5------5----|
--0--0-0-0-0-------------|--0--0-0-0-0-------------|--0--0-0-0-0-------------|


  E  E  E  E  E  E  E  E       E  E  E  E  E  E  E  E   
---------------------------||--------------------------|
--------------------------*||--------------------------|
--------------------------*||--------------------------|
--3--L--L--3--2--L--3--2---||--3--L--L--3--2--L--3--2--|


    S S S S S S E  H           S S S S S S Q    S S Q     3x
|---------------------------|-----------------------------||
|*--------------------------|----------------------------*||
|*--------------------------|----------------------------*||
|---0-0-0-0-0-0-0--L--------|--0-0-0-0-0-0-0----0-0-1-----||


  S S S S S S E  H           S S S S S S Q    S S Q     
--------------------------|----------------------------|
--------------------------|----------------------------|
--------------------------|----------------------------|
--0-0-0-0-0-0-0--L--------|--0-0-0-0-0-0-0----0-0-1----|


    E  S S S S Q.     Q       E  S S S S Q.     Q       E  S S S S Q.     Q     
|--------------------------|-------------------------|-------------------------|
|*-------------------------|-------------------------|-------------------------|
|*-------------7------7----|-------------7------7----|-------------5------5----|
|---0--0-0-0-0-------------|--0--0-0-0-0-------------|--0--0-0-0-0-------------|


  E  S S S S Q.     Q       E  S S S S Q.     Q       E  S S S S Q.     Q     
-------------------------|-------------------------|-------------------------|
-------------------------|-------------------------|-------------------------|
-------------5------5----|-------------3------3----|-------------5------5----|
--0--0-0-0-0-------------|--0--0-0-0-0-------------|--0--0-0-0-0-------------|


  E  E  E  E  E  E  E  E       E  E  E  E  E  E  E  E   
---------------------------||--------------------------|
--------------------------*||--------------------------|
--------------------------*||--------------------------|
--3--L--L--3--2--L--3--2---||--3--L--L--3--2--L--3--2--|


  S S S S S S E  H           W                   W                 
--------------------------|-------------------|-------------------|
--------------------------|-------------------|-------------------|
--------------------------|-------------------|-------------------|
--0-0-0-0-0-0-0--L--------|--L----------------|--L----------------|


  W                   W                   W                   W                 
-------------------|-------------------|-------------------|-------------------|
-------------------|-------------------|-------------------|-------------------|
-------------------|-------------------|-------------------|-------------------|
--0----------------|-------------------|--0----------------|-------------------|


  W                   E  E  E  E  E  E  Q       W                 
-------------------|-------------------------|-------------------|
-------------------|-----------------9--7----|-------------------|
-------------------|-------------------------|-------------------|
--0----------------|-------------------------|--0----------------|


  E   E  E   E   E  E  Q       W                   W                 
---------7h--9p--7----------|-------------------|-------------------|
--7h--9-------------9--7----|-------------------|-------------------|
----------------------------|-------------------|-------------------|
----------------------------|--0----------------|-------------------|


  W                   W                   W                   W                 
-------------------|-------------------|-------------------|-------------------|
-------------------|-------------------|-------------------|-------------------|
-------------------|-------------------|--5----------------|-------------------|
--3----------------|-------------------|-------------------|-------------------|


  E  Q    E  E  Q.        W                   W                 
-----------------------|-------------------|-------------------|
-----------------------|-------------------|-------------------|
--7-------------7------|--L----------------|-------------------|
-----0----0--0---------|-------------------|--0----------------|


  W                   W                   W                 
-------------------|-------------------|-------------------|
-------------------|-------------------|-------------------|
-------------------|-------------------|-------------------|
-------------------|--3----------------|-------------------|


  H        Q    E  E     W                   E  Q    E  E  Q.      
----------------------|-------------------|-----------------------|
----------------------|-------------------|-----------------------|
--5--------5----8--5--|--L----------------|--7-------------7------|
----------------------|-------------------|-----0----0--0---------|


  W                   W                   W                   W                 
-------------------|-------------------|-------------------|-------------------|
-------------------|-------------------|-------------------|-------------------|
--L----------------|-------------------|-------------------|-------------------|
-------------------|--0----------------|-------------------|--3----------------|


  W                   H        Q    E  E     W                 
-------------------|----------------------|-------------------|
-------------------|----------------------|-------------------|
-------------------|--5--------5----8--5--|--L----------------|
-------------------|----------------------|-------------------|


  E  Q    E  E  Q.        W                   W                 
-----------------------|-------------------|-------------------|
-----------------------|-------------------|-------------------|
--7-------------7------|--L----------------|-------------------|
-----0----0--0---------|-------------------|--0----------------|


  W                   W                   W                 
-------------------|-------------------|-------------------|
-------------------|-------------------|-------------------|
-------------------|-------------------|-------------------|
-------------------|--3----------------|-------------------|


  H        Q    E  E     W                   E  Q    E  E  Q.      
----------------------|-------------------|-----------------------|
----------------------|-------------------|-----------------------|
--5--------5----8--5--|--L----------------|--7-------------7------|
----------------------|-------------------|-----0----0--0---------|


  W                   W                   W                   W                 
-------------------|-------------------|-------------------|-------------------|
-------------------|-------------------|-------------------|-------------------|
--L----------------|-------------------|-------------------|-------------------|
-------------------|--0----------------|-------------------|--3----------------|


  W                   H        Q    E  E     W                 
-------------------|----------------------|-------------------|
-------------------|----------------------|-------------------|
-------------------|--5--------5----8--5--|--L----------------|
-------------------|----------------------|-------------------|


  E  Q    E  E  Q.        W                   Q    E  E  H         
-----------------------|-------------------|----------------------|
-----------------------|-------------------|----------------------|
--7-------------7------|--L----------------|----------------------|
-----0----0--0---------|-------------------|--0----0--0--0--------|


  W                   Q    E  E  H           W                 
-------------------|----------------------|-------------------|
-------------------|----------------------|-------------------|
-------------------|----------------------|-------------------|
--L----------------|--3----3--3--3--------|--L----------------|


  Q    E  E  H           W                   Q    E  E  H         
----------------------|-------------------|----------------------|
----------------------|-------------------|----------------------|
--5----5--5--5--------|--L----------------|----------------------|
----------------------|-------------------|--0----0--0--0--------|


  W                   Q    E  E  H           W                 
-------------------|----------------------|-------------------|
-------------------|----------------------|-------------------|
-------------------|----------------------|-------------------|
--L----------------|--0----0--0--0--------|--L----------------|


  Q    E  E  H           W                   Q    E  E  H         
----------------------|-------------------|----------------------|
----------------------|-------------------|----------------------|
----------------------|-------------------|--5----5--5--5--------|
--3----3--3--3--------|--L----------------|----------------------|


  W                   Q    E  E  H           W                 
-------------------|----------------------|-------------------|
-------------------|----------------------|-------------------|
--L----------------|----------------------|-------------------|
-------------------|--0----0--0--0--------|--L----------------|


  Q    E  E  H           W                   Q    E  E  H         
----------------------|-------------------|----------------------|
----------------------|-------------------|----------------------|
----------------------|-------------------|----------------------|
--0----0--0--0--------|--L----------------|--3----3--3--3--------|


  W                   Q    E  E  H           H.           E  E   
-------------------|----------------------|---------------------|
-------------------|----------------------|---------------------|
-------------------|--5----5--5--5--------|--L------------L--5--|
--L----------------|----------------------|---------------------|


  E  E  Q    H           W                   Q    E  E  H         
----------------------|-------------------|----------------------|
----------------------|-------------------|----------------------|
--L--7--7-------------|-------------------|----------------------|
-------------0--------|--L----------------|--0----0--0--0--------|


  W                   Q    E  E  H           W                 
-------------------|----------------------|-------------------|
-------------------|----------------------|-------------------|
-------------------|----------------------|-------------------|
--L----------------|--3----3--3--3--------|--L----------------|


  Q    E  E  H           H.           E  E     E  E  Q    Q.     E   
----------------------|---------------------|-----------------------|
----------------------|---------------------|-----------------------|
--5----5--5--5--------|--L------------L--5--|--L--7--7-----------5--|
----------------------|---------------------|-------------0---------|


  E  E  Q    H           Q    E  E  H           W                 
----------------------|----------------------|-------------------|
----------------------|----------------------|-------------------|
--L--7--7-------------|----------------------|-------------------|
-------------0--------|--0----0--0--0--------|--L----------------|


  Q    E  E  H           W                   Q    E  E  H         
----------------------|-------------------|----------------------|
----------------------|-------------------|----------------------|
----------------------|-------------------|--5----5--5--5--------|
--3----3--3--3--------|--L----------------|----------------------|


  H.           E  E     E  E  Q    H           W                 
---------------------|----------------------|-------------------|
---------------------|----------------------|-------------------|
--L------------L--5--|--L--7--7-------------|-------------------|
---------------------|-------------0--------|--L----------------|


  Q    E  E  H           W                   Q    E  E  H         
----------------------|-------------------|----------------------|
----------------------|-------------------|----------------------|
----------------------|-------------------|----------------------|
--0----0--0--0--------|--L----------------|--3----3--3--3--------|


  W                   Q    E  E  H           H.           E  E   
-------------------|----------------------|---------------------|
-------------------|----------------------|---------------------|
-------------------|--5----5--5--5--------|--L------------L--5--|
--L----------------|----------------------|---------------------|


  E  E  Q    H           W                   Q    E  E  H         
----------------------|-------------------|----------------------|
----------------------|-------------------|----------------------|
--L--7--7-------------|-------------------|----------------------|
-------------0--------|--L----------------|--0----0--0--0--------|


  W                   Q    E  E  H           W                 
-------------------|----------------------|-------------------|
-------------------|----------------------|-------------------|
-------------------|----------------------|-------------------|
--L----------------|--3----3--3--3--------|--L----------------|


  Q    E  E  H           H.           E  E     E  E  Q    H         
----------------------|---------------------|----------------------|
----------------------|---------------------|----------------------|
--5----5--5--5--------|--L------------L--5--|--L--7--7-------------|
----------------------|---------------------|-------------0--------|


  W                   Q    E  E  H           W                 
-------------------|----------------------|-------------------|
-------------------|----------------------|-------------------|
-------------------|----------------------|-------------------|
--L----------------|--0----0--0--0--------|--L----------------|


  Q    E  E  H           W                   Q    E  E  H         
----------------------|-------------------|----------------------|
----------------------|-------------------|----------------------|
----------------------|-------------------|--5----5--5--5--------|
--3----3--3--3--------|--L----------------|----------------------|


  H.           E  E     E  E  Q    Q.     E     E  E  Q    H                  
---------------------|-----------------------|----------------------|-------||
---------------------|-----------------------|----------------------|-------||
--L------------L--5--|--L--7--7-----------5--|--L--7--7-------------|-------||
---------------------|-------------0---------|--L----------0--------|-------||




Duration Legend
---------------
W - whole
H - half
Q - quarter
E - 8th
S - 16th
T - 32nd
X - 64th
. - note dotted
|-n-|  - n-tuplets


Tablature Legend
----------------
L - tied note
x - dead note
g - grace note
(n) - ghost note
> - accentuded note
NH - natural harmonic
AH - artificial harmonic
TH - tapped harmonic
SH - semi harmonic
PH - pitch harmonic
h - hammer on
p - pull off
b - bend
br - bendRelease
pb - preBend
pbr - preBendRelease
brb - bendReleaseBend
\n/ - tremolo bar dip
\n - tremolo bar dive
-/n - tremolo bar Release up
/n\ - tremolo bar inverted dip
/n - tremolo bar return
-\n - tremolo bar Release down
S - shift slide
s - legato slide
/ -  slide into from below or out of upwards
\ -  slide into from above or out of downwards
~ - vibrato
W - wide vibrato
tr - trill
TP - tremolo picking
T - tapping
S - slap
P - pop
< - fade in
^ - brush up
v - brush down

            
            
Suggest correction
Creating personal tab
Creating personal tab
You can edit any tab online and save it as your Personal.

You can edit, replace or remove any tab part or add personal notes – all changes will be seen only by you.

Personal tabs can be accessed anytime from any device, even offline.
Learn more »
Give kudos to tab author, rate the tab!
1 2 3 4 5
comments
print report bad tab
guest
You may want to rate the tab now too:
select rating
Wanna post a correction for this tab? Suggest correction