Oops, an error
Loading. Please wait.

Brainwashed bass

version 1
version 1

Whole song

Interactive

169 views 1 this week
no commentswrite comment
1 2 3 4 5
3 more votes to show rating
add to favorites
×
Save as Personal and add changes to this tab that will be seen only by you. Learn more ›
×
You can save this tab as Personal to edit and correct it or add notes. All changes will be seen only by you. Learn more »
launch autoscroll
font size
0
reset
guitar tuner
edit
Autoscroll
slow
fast
+/-
esc
set tempo
stop
 Brainwashed                                   

Transcribed by an unregistered user

                                                                      Iced Earth
Dave



      W                   H        E  E  E  E     W                 
F#||-------------------|-----------------------|-------------------|
C#||-------------------|-----------------------|-------------------|
G#||-------------------|-----------3--2--------|-------------------|
D#||-------------------|-----------------3-----|--0----------------|


  H        E  E  E  E     W                   H        E  E  E  E   
-----------5--4--------|-------------------|-----------------------|
-----------------5-----|--2----------------|--L--------------------|
-----------------------|-------------------|-----------3--2--------|
--L--------------------|-------------------|-----------------3-----|


  W                   H        E  E  E  E     E  E  E  T E.  T E  E  E   
-------------------|-----------------------|----------------------------|
-------------------|-----------------------|--------2--2-3---L-2-----2--|
-------------------|-----------3--2--------|-----2----------------3-----|
--0----------------|--L--------------3-----|--0-------------------------|


  E  E  E  T E.  T E  E  E     E  E  E  T E.  T E  E  E   
----------------------------|----------------------------|
--------2--2-3---L-2-----1--|--------2--2-3---L-2-----2--|
-----2----------------1-----|-----2----------------3-----|
--0-------------------------|--0-------------------------|


  E  E  E  T E.  T E  E  E     E  E  E  T E.  T E  E  E   
----------------------------|----------------------------|
--------2--2-3---L-2-----1--|--------2--2-3---L-2-----2--|
-----2----------------1-----|-----2----------------3-----|
--0-------------------------|--0-------------------------|


  E  E  E  T E.  T E  E  E     E  E  E  T E.  T E  E  E   
----------------------------|----------------------------|
--------2--2-3---L-2-----1--|--------2--2-3---L-2-----2--|
-----2----------------1-----|-----2----------------3-----|
--0-------------------------|--0-------------------------|


  E  E  E  T E.  T E  E  E     E  S S E  Q    E  Q     
----------------------------|-------------------------|
--------2--2-3---L-2-----1--|-------------------------|
-----2----------------1-----|-------------------------|
--0-------------------------|--0--0-0-0--1----1--0----|


  E  S S E  Q    S S E  E     E  S S E  Q    E  Q     
---------------------------|-------------------------|
---------------------------|-------------------------|
------------1----1-1-1-----|-------------------------|
--0--0-0-0--------------1--|--0--0-0-0--1----1--0----|


  E  S S E  Q    S S E  E     E  S S E  Q    E  Q     
---------------------------|-------------------------|
---------------------------|-------------------------|
------------1----1-1-1-----|-------------------------|
--0--0-0-0--------------1--|--0--0-0-0--1----1--0----|


  E  S S E  Q    S S E  E     E  S S E  Q    E  Q     
---------------------------|-------------------------|
---------------------------|-------------------------|
------------1----1-1-1-----|-------------------------|
--0--0-0-0--------------1--|--0--0-0-0--0----0--0----|


  E  S S E  Q    S S E  E     Q    E  Q.     E  E     Q    E  Q    S S S S S S  
---------------------------|-----------------------|---------------------------|
---------------------------|-----------------------|---------------------------|
------------1----1-1-1-----|-----------------------|---------------------------|
--0--0-0-0--------------1--|--0----0---------0--0--|-------0-------0-0-2-3-2-3-|


  Q    E  Q.     E  E     Q    E  Q    S S S S S S    Q    E  Q.     E  E   
-----------------------|---------------------------|-----------------------|
-----------------------|---------------------------|-----------------------|
-----------------------|---------------------------|-----------------------|
--0----0---------0--0--|-------0-------0-0-2-3-2-3-|--0----0---------0--0--|


  Q    E  Q    S S S S S S    Q    E  Q.     E  E     H        E  S S S S S S  
---------------------------|-----------------------|--------------------------|
---------------------------|-----------------------|--------------------------|
---------------------------|-----------------------|--------------------------|
-------0-------0-0-2-3-2-3-|--0----0---------0-----|--0--------L--0-0-2-3-2-3-|


  S S S S S S S S S S S S S S S S    S S S S E  S S S S E  S S E   
----------------------------------|-------------------------------|
----------------------------------|-------------------------------|
----------------------------------|-------------------------------|
--0-0-0-0-3-0-0-0-2-0-0-5-0-0-3-0-|--2-2-2-2-2--2-2-2-2-2--2-2-2--|


  S S S S S S S S S S S S S S S S    S S S S E  S S S S E  S S E   
----------------------------------|-------------------------------|
----------------------------------|-------------------------------|
----------------------------------|-------------------------------|
--0-0-0-0-3-0-0-0-2-0-0-5-0-0-3-0-|--1-1-1-1-1--1-1-1-1-1--1-1-1--|


  S S S S S S S S S S S S S S S S    S S S S E  S S S S E  S S E   
----------------------------------|-------------------------------|
----------------------------------|-------------------------------|
----------------------------------|-------------------------------|
--0-0-0-0-3-0-0-0-2-0-0-5-0-0-3-0-|--2-2-2-2-2--2-2-2-2-2--2-2-2--|


  S S S S S S S S S S S S S S S S    S S S S E  S S S S E  S S E   
----------------------------------|-------------------------------|
----------------------------------|-------------------------------|
----------------------------------|-------------------------------|
--0-0-0-0-3-0-0-0-2-0-0-5-0-0-3-0-|--1-1-1-1-1--1-1-1-1-1--1-1-1--|


  Q    E  Q.     E  E     Q    E  Q    S S S S S S    Q    E  Q.     E  E   
-----------------------|---------------------------|-----------------------|
-----------------------|---------------------------|-----------------------|
-----------------------|---------------------------|-----------------------|
--0----0---------0--0--|-------0-------0-0-2-3-2-3-|--0----0---------0--0--|


  Q    E  Q    S S S S S S    Q    E  Q.     E  E     Q    E  Q    S S S S S S  
---------------------------|-----------------------|---------------------------|
---------------------------|-----------------------|---------------------------|
---------------------------|-----------------------|---------------------------|
-------0-------0-0-2-3-2-3-|--0----0---------0--0--|-------0-------0-0-2-3-2-3-|


  Q    E  Q.     E  E     H        E  S S S S S S  
-----------------------|--------------------------|
-----------------------|--------------------------|
-----------------------|--------------------------|
--0----0---------0-----|--0--------L--0-0-2-3-2-3-|


  S S S S S S S S S S S S S S S S    S S S S E  S S S S E  S S E   
----------------------------------|-------------------------------|
----------------------------------|-------------------------------|
----------------------------------|-------------------------------|
--0-0-0-0-3-0-0-0-2-0-0-5-0-0-3-0-|--2-2-2-2-2--2-2-2-2-2--2-2-2--|


  S S S S S S S S S S S S S S S S    S S S S E  S S S S E  S S E   
----------------------------------|-------------------------------|
----------------------------------|-------------------------------|
----------------------------------|-------------------------------|
--0-0-0-0-3-0-0-0-2-0-0-5-0-0-3-0-|--1-1-1-1-1--1-1-1-1-1--1-1-1--|


  S S S S S S S S S S S S S S S S    S S S S E  S S S S E  S S E   
----------------------------------|-------------------------------|
----------------------------------|-------------------------------|
----------------------------------|-------------------------------|
--0-0-0-0-3-0-0-0-2-0-0-5-0-0-3-0-|--2-2-2-2-2--2-2-2-2-2--2-2-2--|


  S S S S S S S S S S S S S S S S    S S S S E  S S S S E  S S E   
----------------------------------|-------------------------------|
----------------------------------|-------------------------------|
----------------------------------|-------------------------------|
--0-0-0-0-3-0-0-0-2-0-0-5-0-0-3-0-|--1-1-1-1-1--1-1-1-1-1--1-1-1--|


  E  S S E  E  S S E  E  E     E  S S E  E  S S E  E  E   
----------------------------|----------------------------|
----------------------------|----------------------------|
----------------------------|----------------------------|
--0--0-0-0--0--0-0-0--0--0--|--3--3-3-3--3--3-3-3--3--3--|


  E  S S E  E  S S E  E  E     E  S S E  E  S S E  E  E   
----------------------------|----------------------------|
----------------------------|----------------------------|
----------------------------|----------------------------|
--2--2-2-2--2--2-2-2--3--2--|--0--0-0-0--0--0-0-0--0--0--|


  E  S S E  E  S S E  E  E     E  S S E  E  S S E  E  E   
----------------------------|----------------------------|
----------------------------|----------------------------|
----------------------------|----------------------------|
--0--0-0-0--0--0-0-0--0--0--|--3--3-3-3--3--3-3-3--3--3--|


  E  S S E  E  S S E  E  E     E  S S E  E  S S E  E  E     W                 
----------------------------|----------------------------|-------------------|
----------------------------|----------------------------|-------------------|
----------------------------|----------------------------|-------------------|
--2--2-2-2--2--2-2-2--3--2--|--0--0-0-0--0--0-0-0--0--0--|--0----------------|


  W                   W                   W                   W                 
-------------------|-------------------|-------------------|-------------------|
-------------------|-------------------|-------------------|-------------------|
-------------------|-------------------|-------------------|-------------------|
--3----------------|--1----------------|--2----------------|--0----------------|


  W                   W                   W                   W                 
-------------------|-------------------|-------------------|-------------------|
-------------------|-------------------|-------------------|-------------------|
-------------------|-------------------|-------------------|-------------------|
--3----------------|--1----------------|--2----------------|--0----------------|


  W                   W                   W                   W                 
-------------------|-------------------|-------------------|-------------------|
-------------------|-------------------|-------------------|-------------------|
-------------------|-------------------|-------------------|-------------------|
--3----------------|--1----------------|--2----------------|--0----------------|


  W                   W                   W                 
-------------------|-------------------|-------------------|
-------------------|-------------------|-------------------|
-------------------|-------------------|-------------------|
--3----------------|--1----------------|--2----------------|


  E  S S E  E  H           E  S S E  E  E  E  E  E     E  S S E  E  H         
------------------------|---------------------------|------------------------|
------------------------|---------------------------|------------------------|
------------------------|---------------------------|------------------------|
--0--0-0-0--2--0--------|--0--0-0-0--2--0--0--2--3--|--0--0-0-0--2--0--------|


  E  S S E  E  E  E  E  E     E  S S E  E  H         
---------------------------|------------------------|
---------------------------|------------------------|
---------------------------|------------------------|
--0--0-0-0--2--0--0--2--3--|--0--0-0-0--2--0--------|


  E  S S E  E  E  E  E  E     E  S S E  E  H         
---------------------------|------------------------|
---------------------------|------------------------|
---------------------------|------------------------|
--0--0-0-0--2--0--0--2--3--|--0--0-0-0--2--0--------|


  E  S S E  E  E  E  E  E     E  S S E  E  H           E  S S E  E  H         
---------------------------|------------------------|------------------------|
---------------------------|------------------------|------------------------|
---------------------------|------------------------|------------------------|
--0--0-0-0--2--0--0--2--3--|--0--0-0-0--3--2--------|--2--2-2-2--2--1--------|


  E  S S E  E  H           E  S S E  E  E  E  E  E     E  S S E  E  H         
------------------------|---------------------------|------------------------|
------------------------|---------------------------|------------------------|
------------------------|---------------------------|------------------------|
--0--0-0-0--2--0--------|--0--0-0-0--2--0--0--2--3--|--0--0-0-0--2--0--------|


  E  S S E  E  E  E  E  E     E  S S E  E  H           E  S S E  E  H         
---------------------------|------------------------|------------------------|
---------------------------|------------------------|------------------------|
---------------------------|------------------------|------------------------|
--0--0-0-0--2--0--0--2--3--|--0--0-0-0--3--2--------|--2--2-2-2--2--1--------|


  E  S S E  E  H           E  S S E  E  E  E  E  E     E  S S E  E  H         
------------------------|---------------------------|------------------------|
------------------------|---------------------------|------------------------|
------------------------|---------------------------|------------------------|
--0--0-0-0--2--0--------|--0--0-0-0--2--0--0--2--3--|--0--0-0-0--2--0--------|


  E  S S E  E  E  E  E  E     E  S S E  E  H           E  S S E  E  H         
---------------------------|------------------------|------------------------|
---------------------------|------------------------|------------------------|
---------------------------|------------------------|------------------------|
--0--0-0-0--2--0--0--2--3--|--0--0-0-0--3--2--------|--2--2-2-2--2--1--------|


  E  S S E  E  H           E  S S E  E  E  E  E  E     E  S S E  E  H         
------------------------|---------------------------|------------------------|
------------------------|---------------------------|------------------------|
------------------------|---------------------------|------------------------|
--0--0-0-0--2--0--------|--0--0-0-0--2--0--0--2--3--|--0--0-0-0--2--0--------|


  E  S S E  E  E  E  E  E     E  S S E  E  H           E  S S E  E  H         
---------------------------|------------------------|------------------------|
---------------------------|------------------------|------------------------|
---------------------------|------------------------|------------------------|
--0--0-0-0--2--0--0--2--3--|--0--0-0-0--3--2--------|--2--2-2-2--2--1--------|


  E  S S E  E  H           E  S S E  E  E  E  E  E     E  S S E  E  H         
------------------------|---------------------------|------------------------|
------------------------|---------------------------|------------------------|
------------------------|---------------------------|------------------------|
--0--0-0-0--2--0--------|--0--0-0-0--2--0--0--2--3--|--0--0-0-0--3--2--------|


  E  S S E  E  H           S S S S E  E  H           W                 
------------------------|-------------------------|-------------------|
------------------------|-------------------------|-------------------|
------------------------|-------------------------|-------------------|
--2--2-2-2--2--1--------|--0-0-0-0-2--0--0--------|--L----------------|


  W                   W                   H.           Q     
-------------------|-------------------|--------------------|
-------------------|-------------------|--------------------|
-------------------|-------------------|---------------5----|
--L----------------|--L----------------|--L-----------------|


  H        H           E  E  H.              W                 
--------------------|---------------------|-------------------|
--------------------|---------------------|-------------------|
--L--------3--------|---------------------|-------------------|
--------------------|--0------------------|-------------------|


  W                   W                   E  S S S S E  S S S S E  S S  
-------------------|-------------------|-------------------------------|
-------------------|-------------------|-------------------------------|
-------------------|-------------------|-------------------------------|
-------------------|-------------------|--0--0-0-0-0-0--0-0-0-0-0--0-0-|


  S S E  S S S S S S S S S S S S    E  S S S S E  S S S S Q     
---------------------------------|-----------------------------|
---------------------------------|-----------------------------|
---------------------------------|------------------------5----|
--0-0-0--0-0-0-0-3-3-3-3-2-2-2-2-|--0--0-0-0-0-0--0-0-0-0------|


  H        H           E  S S S S E  S S S S E  S S  
--------------------|-------------------------------|
--------------------|-------------------------------|
--L--------3--------|-------------------------------|
--------------------|--0--0-0-0-0-0--0-0-0-0-0--0-0-|


  S S E  S S S S S S S S S S S S    E  S S S S E  S S S S Q     
---------------------------------|-----------------------------|
---------------------------------|-----------------------------|
---------------------------------|------------------------5----|
--0-0-0--0-0-0-0-3-3-3-3-2-2-2-2-|--0--0-0-0-0-0--0-0-0-0------|


  H        H           E  S S S S E  S S S S E  S S  
--------------------|-------------------------------|
--------------------|-------------------------------|
--L--------3--------|-------------------------------|
--------------------|--0--0-0-0-0-0--0-0-0-0-0--0-0-|


  S S E  S S S S S S S S S S S S    E  S S S S E  S S S S Q     
---------------------------------|-----------------------------|
---------------------------------|-----------------------------|
---------------------------------|------------------------5----|
--0-0-0--0-0-0-0-3-3-3-3-2-2-2-2-|--0--0-0-0-0-0--0-0-0-0------|


  H        H           E  S S S S E  S S S S E  S S  
--------------------|-------------------------------|
--------------------|-------------------------------|
--L--------3--------|-------------------------------|
--------------------|--0--0-0-0-0-0--0-0-0-0-0--0-0-|


  S S E  S S S S S S S S S S S S    E  S S S S E  S S S S Q     
---------------------------------|-----------------------------|
---------------------------------|-----------------------------|
---------------------------------|------------------------5----|
--0-0-0--0-0-0-0-3-3-3-3-2-2-2-2-|--0--0-0-0-0-0--0-0-0-0------|


  H        H           E  Q    E  Q    E  E     E  E  Q    E  E  E  E   
--------------------|------------------------|-------------------------|
--------------------|------------------------|-------------------------|
--L--------3--------|------------------------|-------------------------|
--------------------|--0-------0-------0-----|-----0-------3-----2--3--|


  E  Q    E  Q    Q       H        H           E  Q    E  Q    E  E   
-----------------------|--------------------|------------------------|
-----------------------|--------------------|------------------------|
------------------5----|--L--------3--------|------------------------|
--0-------0------------|--------------------|--0-------0-------0-----|


  E  E  Q    E  E  E  E     E  Q    E  Q    Q       H        H         
-------------------------|-----------------------|--------------------|
-------------------------|-----------------------|--------------------|
-------------------------|------------------5----|--L--------3--------|
-----0-------3-----2--3--|--0-------0------------|--------------------|


  W                   W                   W                 
-------------------|-------------------|-------------------|
-------------------|-------------------|-------------------|
-------------------|-------------------|-------------------|
--0----------------|--L----------------|--L----------------|


  E  E  E  E  E  E  Q       W                   W                 
-------------------------|-------------------|-------------------|
-------------------------|-------------------|-------------------|
--5--5--5--5--5--5--3----|-------------------|-------------------|
-------------------------|--0----------------|--1----------------|


  W                   E  E  E  E  E  E  Q       W                 
-------------------|-------------------------|-------------------|
-------------------|-------------------------|-------------------|
-------------------|--5--5--5--5--5--5--3----|-------------------|
--0----------------|-------------------------|--0----------------|


  W                   W                   E  E  E  E  E  E  Q     
-------------------|-------------------|-------------------------|
-------------------|-------------------|-------------------------|
-------------------|-------------------|--5--5--5--5--5--5--3----|
--1----------------|--0----------------|-------------------------|


  W                   W                   W                 
-------------------|-------------------|-------------------|
-------------------|-------------------|-------------------|
-------------------|-------------------|-------------------|
--0----------------|--1----------------|--0----------------|


  E  E  E  E  E  E  Q       W                   W                 
-------------------------|-------------------|-------------------|
-------------------------|-------------------|-------------------|
--5--5--5--5--5--5--3----|-------------------|-------------------|
-------------------------|--0----------------|--1----------------|


  W                   E  E  E  E  E  E  Q       W                 
-------------------|-------------------------|-------------------|
-------------------|-------------------------|-------------------|
-------------------|--5--5--5--5--5--5--3----|-------------------|
--0----------------|-------------------------|--0----------------|


  W                   W                   E  E  E  E  E  E  Q     
-------------------|-------------------|-------------------------|
-------------------|-------------------|-------------------------|
-------------------|-------------------|--5--5--5--5--5--5--3----|
--1----------------|--0----------------|-------------------------|


  H.           E  E     H        E  E  E  E     H.           E  E   
---------------------|-----------------------|---------------------|
---------------------|-----------------------|---------------------|
---------------------|-----------------------|---------------------|
--0------------0--0--|--1--------L--1--3--1--|--0------------0--0--|


  E  S S E  E  E  E  Q       H.           E  E     H        E  E  E  E   
--------------------------|---------------------|-----------------------|
--------------------------|---------------------|-----------------------|
--5--5-5-5--5--5--5--3----|---------------------|-----------------------|
--------------------------|--0------------0--0--|--1--------L--1--3--1--|


  H.           E  E     E  S S E  E  E  E  Q       E  S S E  E  S S E  E  E   
---------------------|--------------------------|----------------------------|
---------------------|--------------------------|----------------------------|
---------------------|--5--5-5-5--5--5--5--3----|----------------------------|
--0------------0--0--|--------------------------|--0--0-0-0--0--0-0-0--0--0--|


  E  S S E  E  S S E  E  E     E  S S E  E  S S E  E  E   
----------------------------|----------------------------|
----------------------------|----------------------------|
----------------------------|----------------------------|
--3--3-3-3--3--3-3-3--3--3--|--2--2-2-2--2--2-2-2--3--2--|


  E  S S E  E  S S E  E  E     E  S S E  E  S S E  E  E   
----------------------------|----------------------------|
----------------------------|----------------------------|
----------------------------|----------------------------|
--0--0-0-0--0--0-0-0--0--0--|--0--0-0-0--0--0-0-0--0--0--|


  E  S S E  E  S S E  E  E     E  S S E  E  S S E  E  E   
----------------------------|----------------------------|
----------------------------|----------------------------|
----------------------------|----------------------------|
--3--3-3-3--3--3-3-3--3--3--|--2--2-2-2--2--2-2-2--3--2--|


  E  S S E  E  S S E  E  E     W                   W                 
----------------------------|-------------------|-------------------|
----------------------------|-------------------|-------------------|
----------------------------|-------------------|-------------------|
--0--0-0-0--0--0-0-0--0--0--|--0----------------|--3----------------|


  W                   W                   W                   W                 
-------------------|-------------------|-------------------|-------------------|
-------------------|-------------------|-------------------|-------------------|
-------------------|-------------------|-------------------|-------------------|
--1----------------|--2----------------|--0----------------|--3----------------|


  W                   W                   W                   W                 
-------------------|-------------------|-------------------|-------------------|
-------------------|-------------------|-------------------|-------------------|
-------------------|-------------------|-------------------|-------------------|
--1----------------|--2----------------|--0----------------|--3----------------|


  W                   W                   W                   W                 
-------------------|-------------------|-------------------|-------------------|
-------------------|-------------------|-------------------|-------------------|
-------------------|-------------------|-------------------|-------------------|
--1----------------|--2----------------|--0----------------|--3----------------|


  W                   W                   E  S S E  E  S S E  E  E   
-------------------|-------------------|----------------------------|
-------------------|-------------------|----------------------------|
-------------------|-------------------|----------------------------|
--1----------------|--2----------------|--0--0-0-0--0--0-0-0--0--0--|


  E  S S E  E  S S S S Q       Q    H.              W                  
----------------------------|--------------------|-------------------||
----------------------------|--------------------|-------------------||
----------------------------|--------------------|-------------------||
--0--0-0-0--0--0-0-0-0-1----|--0-----------------|-------------------||




Duration Legend
---------------
W - whole
H - half
Q - quarter
E - 8th
S - 16th
T - 32nd
X - 64th
. - note dotted
|-n-|  - n-tuplets


Tablature Legend
----------------
L - tied note
x - dead note
g - grace note
(n) - ghost note
> - accentuded note
NH - natural harmonic
AH - artificial harmonic
TH - tapped harmonic
SH - semi harmonic
PH - pitch harmonic
h - hammer on
p - pull off
b - bend
br - bendRelease
pb - preBend
pbr - preBendRelease
brb - bendReleaseBend
\n/ - tremolo bar dip
\n - tremolo bar dive
-/n - tremolo bar Release up
/n\ - tremolo bar inverted dip
/n - tremolo bar return
-\n - tremolo bar Release down
S - shift slide
s - legato slide
/ -  slide into from below or out of upwards
\ -  slide into from above or out of downwards
~ - vibrato
W - wide vibrato
tr - trill
TP - tremolo picking
T - tapping
S - slap
P - pop
< - fade in
^ - brush up
v - brush down

            
            
Suggest correction
Creating personal tab
Creating personal tab
You can edit any tab online and save it as your Personal.

You can edit, replace or remove any tab part or add personal notes – all changes will be seen only by you.

Personal tabs can be accessed anytime from any device, even offline.
Learn more »
Give kudos to tab author, rate the tab!
1 2 3 4 5
comments
print report bad tab
guest
You may want to rate the tab now too:
select rating
Wanna post a correction for this tab? Suggest correction