Oops, an error
Loading. Please wait.

Burning Oasis bass

version 1
version 1

Whole song

Interactive

218 views 1 this week
no commentswrite comment
1 2 3 4 5
3 more votes to show rating
add to favorites
×
Save as Personal and add changes to this tab that will be seen only by you. Learn more ›
×
You can save this tab as Personal to edit and correct it or add notes. All changes will be seen only by you. Learn more »
launch autoscroll
font size
0
reset
guitar tuner
edit
Autoscroll
slow
fast
+/-
esc
set tempo
stop
 Burning Oasis                                   

Transcribed by an unregistered user

                                                                      Iced Earth
Dave



       W                   E     E     E     E  H            W                 
F#||--------------------|-----------<>12-----------------|--------------------|
C#||--------------------|-----<>12-----------------------|--------------------|
G#||--------------------|-----------------<>12--L--------|--------------------|
D#||--12----------------|--L-----------------------------|--12----------------|


  H        Q     Q        W                   W                 
-----------------------|-------------------|-------------------|
-----------------------|-------------------|-------------------|
-----------------------|-------------------|-------------------|
--L--------L----12S----|--0----------------|--L----------------|


  W                   W                   W                   W                 
-------------------|-------------------|-------------------|-------------------|
-------------------|-------------------|-------------------|-------------------|
-------------------|-------------------|-------------------|-------------------|
--0----------------|--L----------------|--0----------------|--L----------------|


  W                   W                   W                   W                 
-------------------|-------------------|-------------------|-------------------|
-------------------|-------------------|-------------------|-------------------|
-------------------|-------------------|-------------------|-------------------|
--0----------------|--L----------------|--0----------------|--L----------------|


  W                   E  E  E  E  E  E  E  E     Q    E  Q     Q    E   
-------------------|--------------------------|------------------------|
-------------------|-----0--0--0--0--0--0--0--|-------9--7S----2----3--|
-------------------|--------------------------|------------------------|
--0----------------|--L-----------------------|--0---------------------|


  W                   Q    E  Q     Q.        E  E  Q    H         
-------------------|-----------------------|----------------------|
--L----------------|-------9--7S----2------|--1--0--0----L--------|
-------------------|-----------------------|----------------------|
-------------------|--0--------------------|----------------------|


  Q    E  Q     Q    E     W                   Q    E  Q     Q.      
------------------------|-------------------|-----------------------|
-------9--7S----2----3--|--L----------------|-------9--7S----2------|
------------------------|-------------------|-----------------------|
--0---------------------|-------------------|--0--------------------|


  E  E  Q    H           S S S S S S S S S S S S S S S S  
----------------------|----------------------------------|
--1--0--0----L--------|----------------------------------|
----------------------|--8-8-8-8-8-8-8-8-8-8-8-8-8-8-8-8-|
----------------------|----------------------------------|


  S S S S S S S S S S S S S S S S    S S S S S S S S S S S S S S S S  
----------------------------------|----------------------------------|
----------------------------------|----------------------------------|
--7-7-7-7-7-7-7-7-7-7-7-7-7-7-7-8-|--8-8-8-8-8-8-8-8-8-8-8-8-8-8-8-8-|
----------------------------------|----------------------------------|


  S S S S S S S S S S S S S S S S    S S S S S S S S S S S S S S S S  
----------------------------------|----------------------------------|
----------------------------------|----------------------------------|
--7-7-7-7-7-7-7-7-7-7-7-7-7-7-7-8-|--8-8-8-8-8-8-8-8-8-8-8-8-8-8-8-8-|
----------------------------------|----------------------------------|


  S S S S S S S S S S S S S S S S    S S S S S S S S S S S S S S S S  
----------------------------------|----------------------------------|
----------------------------------|----------------------------------|
--7-7-7-7-7-7-7-7-7-7-7-7-7-7-7-8-|--8-8-8-8-8-8-8-8-8-8-8-8-8-8-8-8-|
----------------------------------|----------------------------------|


  S S S S S S S S S S S S S S E      Q    E  Q     Q    E     W                 
----------------------------------|------------------------|-------------------|
----------------------------------|-------9--7S----2----3--|--L----------------|
--7-7-7-7-7-7-7-7-7-7-7-7-7-7-7S--|------------------------|-------------------|
----------------------------------|--0---------------------|-------------------|


  Q    E  Q     Q.        E  E  Q    H           Q    E  Q     Q    E   
-----------------------|----------------------|------------------------|
-------9--7S----2------|--1--0--0----L--------|-------9--7S----2----3--|
-----------------------|----------------------|------------------------|
--0--------------------|----------------------|--0---------------------|


  W                   Q    E  Q     Q.        E  E  Q    H         
-------------------|-----------------------|----------------------|
--L----------------|-------9--7S----2------|--1--0--0----L--------|
-------------------|-----------------------|----------------------|
-------------------|--0--------------------|----------------------|


  S S S S S S S S S S S S S S S S    S S S S S S S S S S S S S S S S  
----------------------------------|----------------------------------|
----------------------------------|----------------------------------|
--8-8-8-8-8-8-8-8-8-8-8-8-8-8-8-8-|--7-7-7-7-7-7-7-7-7-7-7-7-7-7-7-8-|
----------------------------------|----------------------------------|


  S S S S S S S S S S S S S S S S    S S S S S S S S S S S S S S S S  
----------------------------------|----------------------------------|
----------------------------------|----------------------------------|
--8-8-8-8-8-8-8-8-8-8-8-8-8-8-8-8-|--7-7-7-7-7-7-7-7-7-7-7-7-7-7-7-8-|
----------------------------------|----------------------------------|


  S S S S S S S S S S S S S S S S    S S S S S S S S S S S S S S S S  
----------------------------------|----------------------------------|
----------------------------------|----------------------------------|
--8-8-8-8-8-8-8-8-8-8-8-8-8-8-8-8-|--7-7-7-7-7-7-7-7-7-7-7-7-7-7-7-8-|
----------------------------------|----------------------------------|


  S S S S S S S S S S S S S S S S    S S S S S S S S S S S S S S S S  
----------------------------------|----------------------------------|
----------------------------------|----------------------------------|
--8-8-8-8-8-8-8-8-8-8-8-8-8-8-8-8-|--7-7-7-7-7-7-7-7-7-7-7-7-7-7-7-8-|
----------------------------------|----------------------------------|


  E  S S S S E  S S S S    E  S S S S E  S S S S    E  S S S S E  S S S S  
-----5-----5----5-------|-----5-----5----5-------|-----7-----7----7-------|
------------------------|------------------------|------------------------|
-------5-7---7----5-7-3-|-------5-7---7----5-7-3-|-------7-9---9----7-9-5-|
--5---------------------|--5---------------------|--7---------------------|


  E  S S S S E  S S S S    E  S S S S E  S S S S    E  S S S S E  S S S S  
-----7-----7----7-------|-----5-----5----5-------|-----5-----5----5-------|
------------------------|------------------------|------------------------|
-------7-9---9----7-9-5-|-------5-7---7----5-7-3-|-------5-7---7----5-7-3-|
--7---------------------|--5---------------------|--5---------------------|


  E  S S S S E  S S S S    E  S S S S E  S S S S    E  S S S S E  S S S S  
-----7-----7----7-------|-----7-----7----7-------|-----5-----5----5-------|
------------------------|------------------------|------------------------|
-------7-9---9----7-9-5-|-------7-9---9----7-9-5-|-------5-7---7----5-7-3-|
--7---------------------|--7---------------------|--5---------------------|


  E  S S S S E  S S S S    E  S S S S E  S S S S    E  S S S S E  S S S S  
-----5-----5----5-------|-----7-----7----7-------|-----7-----7----7-------|
------------------------|------------------------|------------------------|
-------5-7---7----5-7-3-|-------7-9---9----7-9-5-|-------7-9---9----7-9-5-|
--5---------------------|--7---------------------|--7---------------------|


  E  S S S S E  S S S S    E  S S S S E  S S S S    E  S S S S E  S S S S  
-----5-----5----5-------|-----5-----5----5-------|-----7-----7----7-------|
------------------------|------------------------|------------------------|
-------5-7---7----5-7-3-|-------5-7---7----5-7-3-|-------7-9---9----7-9-5-|
--5---------------------|--5---------------------|--7---------------------|


  E  S S S S E  S S S S    E  S S S S E  S S S S    E  S S S S E  S S S S  
-----7-----7----7-------|-----5-----5----5-------|-----5-----5----5-------|
------------------------|------------------------|------------------------|
-------7-9---9----7-9-5-|-------5-7---7----5-7-3-|-------5-7---7----5-7-3-|
--7---------------------|--5---------------------|--5---------------------|


  E  S S S S E  S S S S    E  S S S S E  S S S S  
-----7-----7----7-------|-----7-----7----7-------|
------------------------|------------------------|
-------7-9---9----7-9-5-|-------7-9---9----7-9-5-|
--7---------------------|--7---------------------|


  S T T S S T T S S T T S S S S    S T T S S T T S S T T S S S S  
--------------------------------|--------------------------------|
--------------------------------|--------------------------------|
--------------------------------|--------------------------------|
--0-0-0-0-0-0-0-0-0-0-0-0-1-1-1-|--0-0-0-0-0-0-0-0-0-0-0-0-1-1-1-|


  S T T S S T T S S T T S S S S    S T T S S T T S S T T S S S S  
--------------------------------|--------------------------------|
--------------------------------|--------------------------------|
--------------------------------|--------------------------------|
--0-0-0-0-0-0-0-0-0-0-0-0-1-1-1-|--0-0-0-0-0-0-0-0-0-0-0-0-1-1-1-|


  S  S S S S S  S  S  S S  S S    S  S S S S S  S  S  S S  S S  
--9-10-9-7-9-7-----------------|--9-10-9-7-9-7-----------------|
---------------10-12-10-9------|---------------10-12-10-9------|
--------------------------10-7-|--------------------------10-7-|
-------------------------------|-------------------------------|


  S  S S S S S  S  S  S S  S S    S  S S S S S  S  S  S S  S S  
--9-10-9-7-9-7-----------------|--9-10-9-7-9-7-----------------|
---------------10-12-10-9------|---------------10-12-10-9------|
--------------------------10-7-|--------------------------10-7-|
-------------------------------|-------------------------------|


  S S S S S S S S S S S S    S S S S S S S S S S S S  
--------------------------|--------------------------|
--------------------------|--------------------------|
--------------------------|--------------------------|
--0---0-0---0-0---0-1-0-1-|--0---0-0---0-0---0-1-1-1-|


  S S S S S S S S S S S S    H.              H.              W                 
--------------------------|---------------|---------------|-------------------|
--------------------------|---------------|---------------|-------------------|
--------------------------|---------------|---------------|-------------------|
--0---0-0---0-0---0-1-0-1-|--0------------|--L------------|-------------------|


  W                   E.  S E  E  E.  S  Q        W                 
-------------------|--------------------------|--------------------|
-------------------|--------------------------|--------------------|
-------------------|--7---5-7--8--7---7-12----|--11----------------|
-------------------|--------------------------|--------------------|


  E.  S E  E  E.  S  Q        W                   E.  S E  E  E.  S  Q     
--------------------------|--------------------|--------------------------|
--------------------------|--------------------|--------------------------|
--7---5-7--8--7---7-12----|--11----------------|--7---5-7--8--7---7-12----|
--------------------------|--------------------|--------------------------|


   W                   E.  S E  E  E.  S  Q        W                 
--------------------|--------------------------|--------------------|
--------------------|--------------------------|--------------------|
--11----------------|--7---5-7--8--7---7-12----|--11----------------|
--------------------|--------------------------|--------------------|


  E.  S E  E  E.  S  Q        W                   E.  S E  E  E.  S  Q     
--------------------------|--------------------|--------------------------|
--------------------------|--------------------|--------------------------|
--7---5-7--8--7---7-12----|--11----------------|--7---5-7--8--7---7-12----|
--------------------------|--------------------|--------------------------|


   W                   Q.     S S H           E  S S E  E  H         
--------------------|----------------------|---------4--------------|
--------------------|----------------------|-------6----6--L--------|
--11----------------|----------------------|-----6------------------|
--------------------|--7------L-7-7--------|--4---------------------|


  S S S S Q    S S S  Q    S    W                   Q.     S T T S S S S Q     
-----------------------------|-------------------|----------------------------|
------9------------9-11----L-|-------------------|-------------------9--------|
----9---9-L----L-9-----------|-------------------|-----------------9---9-L----|
--7--------------------------|--4----------------|--7------L-7-9-7------------|


  E  S S E  E  H           E.  E.  Q.     Q       E  S S E  E  H         
---------4--------------|----------------------|---------4--------------|
-------6----6--L--------|----------------------|-------6----6--L--------|
-----6------------------|------9---L------L----|-----6------------------|
--4---------------------|--7-------------------|--4---------------------|


  Q    E  E  H           Q    E  E  H           Q    E  E  H         
----------------------|----------------------|----------------------|
----------------------|----------------------|----------------------|
----------------------|----------------------|----------------------|
--5----5--4-----------|--2----2--4-----------|--5----5--4-----------|


  Q    E  E  H           Q    E  Q    S S S S S S  
----------------------|---------------------------|
----------------------|---------------------------|
----------------------|---------------------------|
--2----2--4-----------|--5----5--4----4-4-4-4-4-4-|


  Q    E  S S S S S S S S S S    S S S S S S S S S S S S S S S S  
------------------------------|----------------------------------|
------------------------------|----------------------------------|
------------------------------|----------------------------------|
--2----2--4-4-4-4-4-4-4-4-4-4-|--5-5-5-5-5-5-4-4-4-4-4-4-4-4-4-4-|


  S S S S S S S S S S S S S S S S    S S S S S S S S S S S S S S S S  
----------------------------------|----------------------------------|
----------------------------------|----------------------------------|
----------------------------------|----------------------------------|
--2-2-2-2-2-2-4-4-4-4-4-4-4-4-4-4-|--5-5-5-5-5-5-4-4-4-4-4-4-4-4-4-4-|


  S S S S S S S S S S S S S S S S    S S S S S S S S S S S S S S S S  
----------------------------------|----------------------------------|
----------------------------------|----------------------------------|
----------------------------------|----------------------------------|
--2-2-2-2-2-2-4-4-4-4-4-4-4-4-4-4-|--5-5-5-5-5-5-4-4-4-4-4-4-4-4-4-4-|


  S S S S S S S S S S S S S S S S    S S S S S S S S S S S S S S S S  
----------------------------------|----------------------------------|
----------------------------------|----------------------------------|
----------------------------------|----------------------------------|
--2-2-2-2-2-2-4-4-4-4-4-4-4-4-4-4-|--5-5-5-5-5-5-4-4-4-4-4-4-4-4-4-4-|


  S S S S S S S S S S S S S S S S    S S S S S S S S S S S S S S S S  
----------------------------------|----------------------------------|
----------------------------------|----------------------------------|
----------------------------------|----------------------------------|
--2-2-2-2-2-2-4-4-4-4-4-4-4-4-4-4-|--5-5-5-5-5-5-4-4-4-4-4-4-4-4-4-4-|


  S S S S S S S S S S S S S S S S    S S S S S S S S S S S S S S S S  
----------------------------------|----------------------------------|
----------------------------------|----------------------------------|
----------------------------------|----------------------------------|
--2-2-2-2-2-2-4-4-4-4-4-4-4-4-4-4-|--5-5-5-5-5-5-4-4-4-4-4-4-4-4-4-4-|


  S S S S S S S S S S S S S S S S    S S S S S S S S S S S S S S S S  
----------------------------------|----------------------------------|
----------------------------------|----------------------------------|
----------------------------------|----------------------------------|
--2-2-2-2-2-2-4-4-4-4-4-4-4-4-4-4-|--5-5-5-5-5-5-4-4-4-4-4-4-4-4-4-4-|


  S S S S S S S S S S S S S S S S    S S S S S S S S S S S S S S S S  
----------------------------------|----------------------------------|
----------------------------------|----------------------------------|
----------------------------------|----------------------------------|
--2-2-2-2-2-2-4-4-4-4-4-4-4-4-4-4-|--5-5-5-5-5-5-4-4-4-4-4-4-4-4-4-4-|


  S S S S S S S S S S S S S S S S    S S S S S S S S S S S S S S S S  
----------------------------------|----------------------------------|
----------------------------------|----------------------------------|
----------------------------------|----------------------------------|
--2-2-2-2-2-2-4-4-4-4-4-4-4-4-4-4-|--5-5-5-5-5-5-4-4-4-4-4-4-4-4-4-4-|


  S S S S S S S S S S S S S S S S    S S S S S S S S S S S S S S S S  
----------------------------------|----------------------------------|
----------------------------------|----------------------------------|
----------------------------------|----------------------------------|
--2-2-2-2-2-2-4-4-4-4-4-4-4-4-4-4-|--5-5-5-5-5-5-4-4-4-4-4-4-4-4-4-4-|


  S S S S S S S S S S S S S S S S    S S S S S S S S S S S S S S S S  
----------------------------------|----------------------------------|
----------------------------------|----------------------------------|
----------------------------------|----------------------------------|
--2-2-2-2-2-2-4-4-4-4-4-4-4-4-4-4-|--5-5-5-5-5-5-4-4-4-4-4-4-4-4-4-4-|


  S S S S S S S S S S S S S S S S    S S S S S S S S S S S S S S S S  
----------------------------------|----------------------------------|
----------------------------------|----------------------------------|
----------------------------------|----------------------------------|
--2-2-2-2-2-2-4-4-4-4-4-4-4-4-4-4-|--5-5-5-5-5-5-4-4-4-4-4-4-4-4-4-4-|


  S S S S S S S S S S S S S S S S    S S S S S S S S S S S S S S S S  
----------------------------------|----------------------------------|
----------------------------------|----------------------------------|
----------------------------------|----------------------------------|
--2-2-2-2-2-2-4-4-4-4-4-4-4-4-4-4-|--5-5-5-5-5-5-4-4-4-4-4-4-4-4-4-4-|


  S S S S S S S S S S S S S S S S    S S S S S S S S S S S S S S S S  
----------------------------------|----------------------------------|
----------------------------------|----------------------------------|
----------------------------------|----------------------------------|
--2-2-2-2-2-2-4-4-4-4-4-4-4-4-4-4-|--5-5-5-5-5-5-4-4-4-4-4-4-4-4-4-4-|


  S S S S S S S S S S S S S S S S    S S S S S S S S S S S S S S S S  
----------------------------------|----------------------------------|
----------------------------------|----------------------------------|
----------------------------------|----------------------------------|
--2-2-2-2-2-2-4-4-4-4-4-4-4-4-4-4-|--5-5-5-5-5-5-4-4-4-4-4-4-4-4-4-4-|


  S S S S S S S S S S S S S S S S    S S S S S S S S S S S S S S S S  
----------------------------------|----------------------------------|
----------------------------------|----------------------------------|
----------------------------------|----------------------------------|
--2-2-2-2-2-2-4-4-4-4-4-4-4-4-4-4-|--5-5-5-5-5-5-4-4-4-4-4-4-4-4-4-4-|


  S S S S S S S S S S S S S S S S    S S S S S S S S S S S S S S S S  
----------------------------------|----------------------------------|
----------------------------------|----------------------------------|
----------------------------------|----------------------------------|
--2-2-2-2-2-2-4-4-4-4-4-4-4-4-4-4-|--5-5-5-5-5-5-4-4-4-4-4-4-4-4-4-4-|


  S S S S S S S S S S S S S S S S    S S S S S S S S S S S S S S S S  
----------------------------------|----------------------------------|
----------------------------------|----------------------------------|
----------------------------------|----------------------------------|
--2-2-2-2-2-2-4-4-4-4-4-4-4-4-4-4-|--5-5-5-5-5-5-4-4-4-4-4-4-4-4-4-4-|


  S S S S S S S S S S S S S S S S    S S S S S S S S S S S S S S S S  
----------------------------------|----------------------------------|
----------------------------------|----------------------------------|
----------------------------------|----------------------------------|
--2-2-2-2-2-2-4-4-4-4-4-4-4-4-4-4-|--5-5-5-5-5-5-4-4-4-4-4-4-4-4-4-4-|


  S S S S S S S S S S S S S S S S    S S S S S S S S S S S S S S S S  
----------------------------------|----------------------------------|
----------------------------------|----------------------------------|
----------------------------------|----------------------------------|
--2-2-2-2-2-2-4-4-4-4-4-4-4-4-4-4-|--5-5-5-5-5-5-4-4-4-4-4-4-4-4-4-4-|


  S S S S S S S S S S S S S S S S    S S S S S S S S S S S S S S S S  
----------------------------------|----------------------------------|
----------------------------------|----------------------------------|
----------------------------------|----------------------------------|
--2-2-2-2-2-2-4-4-4-4-4-4-4-4-4-4-|--5-5-5-5-5-5-4-4-4-4-4-4-4-4-4-4-|


  S S S S S S S S S S S S S S S S    S S S S S S S S S S S S S S S S  
----------------------------------|----------------------------------|
----------------------------------|----------------------------------|
----------------------------------|----------------------------------|
--2-2-2-2-2-2-4-4-4-4-4-4-4-4-4-4-|--5-5-5-5-5-5-4-4-4-4-4-4-4-4-4-4-|


  S S S S S S S S S S S S S S S S    S S S S S S S S S S S S S S S S  
----------------------------------|----------------------------------|
----------------------------------|----------------------------------|
----------------------------------|----------------------------------|
--2-2-2-2-2-2-4-4-4-4-4-4-4-4-4-4-|--5-5-5-5-5-5-4-4-4-4-4-4-4-4-4-4-|


  S S S S S S S S S S S S S S S S    S S S S S S S S S S S S S S S S  
----------------------------------|----------------------------------|
----------------------------------|----------------------------------|
----------------------------------|----------------------------------|
--2-2-2-2-2-2-4-4-4-4-4-4-4-4-4-4-|--5-5-5-5-5-5-4-4-4-4-4-4-4-4-4-4-|


  S S S S S S S S S S E  Q       W                  
------------------------------|-------------------||
------------------------------|-------------------||
------------------------------|-------------------||
--2-2-2-2-2-2-4-4-4-4-4-------|-------------------||




Duration Legend
---------------
W - whole
H - half
Q - quarter
E - 8th
S - 16th
T - 32nd
X - 64th
. - note dotted
|-n-|  - n-tuplets


Tablature Legend
----------------
L - tied note
x - dead note
g - grace note
(n) - ghost note
> - accentuded note
NH - natural harmonic
AH - artificial harmonic
TH - tapped harmonic
SH - semi harmonic
PH - pitch harmonic
h - hammer on
p - pull off
b - bend
br - bendRelease
pb - preBend
pbr - preBendRelease
brb - bendReleaseBend
\n/ - tremolo bar dip
\n - tremolo bar dive
-/n - tremolo bar Release up
/n\ - tremolo bar inverted dip
/n - tremolo bar return
-\n - tremolo bar Release down
S - shift slide
s - legato slide
/ -  slide into from below or out of upwards
\ -  slide into from above or out of downwards
~ - vibrato
W - wide vibrato
tr - trill
TP - tremolo picking
T - tapping
S - slap
P - pop
< - fade in
^ - brush up
v - brush down
Suggest correction
Creating personal tab
Creating personal tab
You can edit any tab online and save it as your Personal.

You can edit, replace or remove any tab part or add personal notes – all changes will be seen only by you.

Personal tabs can be accessed anytime from any device, even offline.
Learn more »
Give kudos to tab author, rate the tab!
1 2 3 4 5
comments
print report bad tab
guest
You may want to rate the tab now too:
select rating
Wanna post a correction for this tab? Suggest correction