Oops, an error
Loading. Please wait.

High Water Mark bass

version 1
version 1

Whole song

Interactive

243 views 1 this week
no commentswrite comment
1 2 3 4 5
3 more votes to show rating
add to favorites
×
Save as Personal and add changes to this tab that will be seen only by you. Learn more ›
×
You can save this tab as Personal to edit and correct it or add notes. All changes will be seen only by you. Learn more »
launch autoscroll
font size
0
reset
guitar tuner
edit
Autoscroll
slow
fast
+/-
esc
set tempo
stop
 High Water Mark                                 

Transcribed by an unregistered user

                                                                      Iced Earth
Bass



      W                   W                   W                 
F#||-------------------|-------------------|-------------------|
C#||-------------------|-------------------|-------------------|
G#||-------------------|-------------------|-------------------|
D#||-------------------|-------------------|-------------------|


  W                   W                   W                   W                 
-------------------|-------------------|-------------------|-------------------|
-------------------|-------------------|-------------------|-------------------|
-------------------|-------------------|-------------------|-------------------|
-------------------|-------------------|-------------------|-------------------|


  W                   E  H.           E     H        E  Q    E   
-------------------|---------------------|----------------------|
-------------------|---------------------|----------------------|
-------------------|-----7------------L--|--L--------L--7----9--|
-------------------|-----0------------L--|--L--------L----------|


  E   H.           E     Q.     Q     Q    E     E  H.           E   
----------------------|-----------------------|---------------------|
----------------------|-----------------------|---------------------|
--L--10------------L--|--L------L----10----9--|--L--5------------L--|
----------------------|-----------------------|---------------------|


  E  H.           E     E  H.           E     Q.     Q    Q    E   
---------------------|---------------------|----------------------|
---------------------|---------------------|----------------------|
--L--9------------L--|--L--7------------L--|--L------L----7----5--|
---------------------|---------------------|----------------------|


  E  H.           E     H        E  Q    E     E  H.           E   
---------------------|----------------------|---------------------|
---------------------|----------------------|---------------------|
--L--3------------L--|--L--------L--3----7--|--L--5------------L--|
---------------------|----------------------|---------------------|


  E  H        Q.        E  H.           E     W                 
---------------------|---------------------|-------------------|
---------------------|---------------------|-------------------|
--L------------------|---------------------|-------------------|
-----3--------5------|--L--0------------L--|--L----------------|


  W                   W                   E  H.           E   
-------------------|-------------------|---------------------|
-------------------|-------------------|---------------------|
-------------------|-------------------|-----7------------L--|
--L----------------|--L----------------|-----0------------L--|


  H        E  Q    E     E   H.           E     Q.     Q     Q    E   
----------------------|----------------------|-----------------------|
----------------------|----------------------|-----------------------|
--L--------L--7----9--|--L--10------------L--|--L------L----10----9--|
--L--------L----------|----------------------|-----------------------|


  E  H.           E     E  H.           E     E  H.           E   
---------------------|---------------------|---------------------|
---------------------|---------------------|---------------------|
--L--5------------L--|--L--9------------L--|--L--7------------L--|
---------------------|---------------------|---------------------|


  Q.     Q    Q    E     E  H.           E     H        E  Q    E   
----------------------|---------------------|----------------------|
----------------------|---------------------|----------------------|
--L------L----7----5--|--L--3------------L--|--L--------L--3----7--|
----------------------|---------------------|----------------------|


  E  H.           E     E  H        Q.        E  H.           E   
---------------------|---------------------|---------------------|
---------------------|---------------------|---------------------|
--L--5------------L--|--L------------------|---------------------|
---------------------|-----3--------5------|--L--0------------L--|


  W                   W                   W                 
-------------------|-------------------|-------------------|
-------------------|-------------------|-------------------|
-------------------|-------------------|-------------------|
--L----------------|--L----------------|--L----------------|


  E  H.           E     H        E  Q    E     E   H.           E   
---------------------|----------------------|----------------------|
---------------------|----------------------|----------------------|
-----7------------L--|--L--------L--7----9--|--L--10------------L--|
-----0------------L--|--L--------L----------|----------------------|


  Q.     Q     Q    E     E  H.           E     E  H.           E   
-----------------------|---------------------|---------------------|
-----------------------|---------------------|---------------------|
--L------L----10----9--|--L--5------------L--|--L--9------------L--|
-----------------------|---------------------|---------------------|


  E  H.           E     Q.     Q    Q    E     E  H.           E   
---------------------|----------------------|---------------------|
---------------------|----------------------|---------------------|
--L--7------------L--|--L------L----7----5--|--L--3------------L--|
---------------------|----------------------|---------------------|


  H        E  Q    E     E  H.           E     E  H        Q.      
----------------------|---------------------|---------------------|
----------------------|---------------------|---------------------|
--L--------L--3----7--|--L--5------------L--|--L------------------|
----------------------|---------------------|-----3--------5------|


  E  H.           E     W                   W                 
---------------------|-------------------|-------------------|
---------------------|-------------------|-------------------|
---------------------|-------------------|-------------------|
--L--0------------L--|--L----------------|--L----------------|


  W                   W                   W                   W                 
-------------------|-------------------|-------------------|-------------------|
-------------------|-------------------|-------------------|-------------------|
-------------------|-------------------|-------------------|-------------------|
--L----------------|--L----------------|--L----------------|--L----------------|


  W                   W                   W                   W                 
-------------------|-------------------|-------------------|-------------------|
-------------------|-------------------|-------------------|-------------------|
-------------------|-------------------|-------------------|-------------------|
--L----------------|-------------------|-------------------|-------------------|


  W                   W                   W                   W                 
-------------------|-------------------|-------------------|-------------------|
-------------------|-------------------|-------------------|-------------------|
-------------------|-------------------|-------------------|-------------------|
-------------------|-------------------|-------------------|-------------------|


  W                   W                   W                   W                 
-------------------|-------------------|-------------------|-------------------|
-------------------|-------------------|-------------------|-------------------|
-------------------|-------------------|-------------------|-------------------|
-------------------|-------------------|-------------------|-------------------|


  W                   W                   W                   W                 
-------------------|-------------------|-------------------|-------------------|
-------------------|-------------------|-------------------|-------------------|
-------------------|-------------------|-------------------|-------------------|
-------------------|-------------------|-------------------|-------------------|


  W                   Q.     Q.     Q       W                 
-------------------|---------------------|-------------------|
-------------------|---------------------|-------------------|
-------------------|--7------5------3----|--L----------------|
-------------------|---------------------|-------------------|


  Q.     Q.     Q       W                   Q.     Q.     Q     
---------------------|-------------------|---------------------|
---------------------|-------------------|---------------------|
--3------5------7----|--L----------------|--7------5------3----|
---------------------|-------------------|---------------------|


  W                   Q.     Q.     Q       W                 
-------------------|---------------------|-------------------|
-------------------|---------------------|-------------------|
--L----------------|--3------5------7----|--L----------------|
-------------------|---------------------|-------------------|


  E  E  E  Q    E  Q       E  E  E  Q    E  Q       E  E  E  Q    E  Q     
------------------------|------------------------|------------------------|
--------9----------9----|--------7----------7----|--------5----------5----|
-----7-----7----7-------|-----7-----7----7-------|-----7-----7----7-------|
--0---------------------|--0---------------------|--0---------------------|


  E  E  E  Q    E  Q       E  E  E  Q    E  Q       E  E  E  Q    E  Q     
------------------------|------------------------|------------------------|
--------4----------4----|--------9----------9----|--------7----------7----|
-----7-----7----7-------|-----7-----7----7-------|-----7-----7----7-------|
--0---------------------|--0---------------------|--0---------------------|


  E  E  E  Q    E  Q       E  E  E  Q    E  Q       E  E  E  Q    E  Q     
------------------------|------------------------|------------------------|
--------5----------5----|--------4----------4----|--------9----------9----|
-----7-----7----7-------|-----7-----7----7-------|-----7-----7----7-------|
--0---------------------|--0---------------------|--0---------------------|


  E  E  E  Q    E  Q       E  E  E  Q    E  Q       E  E  E  Q    E  Q     
------------------------|------------------------|------------------------|
--------7----------7----|--------5----------5----|--------4----------4----|
-----7-----7----7-------|-----7-----7----7-------|-----7-----7----7-------|
--0---------------------|--0---------------------|--0---------------------|


  E  E  E  Q    E  Q       E  E  E  Q    E  Q       E  E  E  Q    E  Q     
------------------------|------------------------|------------------------|
--------9----------9----|--------7----------7----|--------5----------5----|
-----7-----7----7-------|-----7-----7----7-------|-----7-----7----7-------|
--0---------------------|--0---------------------|--0---------------------|


  E  E  E  Q    E  Q       Q.     Q.     Q       W                 
------------------------|---------------------|-------------------|
--------4----------4----|---------------------|-------------------|
-----7-----7----7-------|--7------5------3----|--L----------------|
--0---------------------|---------------------|-------------------|


  Q.     Q.     Q       W                   Q.     Q.     Q     
---------------------|-------------------|---------------------|
---------------------|-------------------|---------------------|
--3------5------7----|--L----------------|--7------5------3----|
---------------------|-------------------|---------------------|


  W                   Q.     Q.     Q       W                 
-------------------|---------------------|-------------------|
-------------------|---------------------|-------------------|
--L----------------|--3------5------7----|--L----------------|
-------------------|---------------------|-------------------|


  W                   W                   W                   W                 
-------------------|-------------------|-------------------|-------------------|
-------------------|-------------------|-------------------|-------------------|
-------------------|-------------------|-------------------|--7----------------|
-------------------|-------------------|-------------------|-------------------|


  H        E  E  E  E     E  H.           E     H        E  Q    E   
-----------4-----------|---------------------|----------------------|
--------------7--5--7--|--L--4------------L--|--L-------------------|
--L--------------------|---------------------|-----------5--7----9--|
-----------------------|---------------------|----------------------|


  E  E  H.              H        E  E  E  E     E  H.           E   
---------------------|-----------4-----------|---------------------|
---------------------|--------------7--5--7--|--L--4------------L--|
--L--5--7------------|--L--------------------|---------------------|
---------------------|-----------------------|---------------------|


  H        E  Q    E     E  E  H.              H        E  E  E  E   
----------------------|---------------------|-----------4-----------|
--L-------------------|---------------------|--------------7--5--7--|
-----------5--7----9--|--L--5--7------------|--L--------------------|
----------------------|---------------------|-----------------------|


  E  H.           E     H        E  Q    E     E  E  E  S S Q.     S S  
---------------------|----------------------|--------------------------|
--L--4------------L--|--L-------------------|--------------------------|
---------------------|-----------5--7----9--|--L--5--7-----------------|
---------------------|----------------------|-----------0-0-0------0-0-|


  Q.     S S Q.     S S    Q.     S S Q.     S S    Q.     S S Q.     S S  
------------------------|------------------------|------------------------|
------------------------|------------------------|------------------------|
------------------------|------------------------|------------------------|
--0------0-0-0------0-0-|--0------0-0-0------0-0-|--0------0-0-0------0-0-|


  Q.     S S E  E  E  S S    E  E  E  S S E  E  E  S S  
--------------------------|----------------------------|
--------------------------|----------------------------|
--------------------------|----------------------------|
--0------0-0-0--0--0--0-0-|--0--0--0--0-0-0--0--0--0-0-|


  E  E  E  S S E  E  E  S S    E  E  E  S S E  E  E  S S  
----------------------------|----------------------------|
----------------------------|----------------------------|
----------------------------|----------------------------|
--0--0--0--0-0-0--0--0--0-0-|--0--0--0--0-0-0--0--0--0-0-|


  E  E  E  S S E  E  E  S S    E  E  E  S S E  E  E  S S  
----------------------------|----------------------------|
----------------------------|----------------------------|
----------------------------|----------------------------|
--0--0--0--0-0-0--0--0--0-0-|--0--0--0--0-0-0--0--0--0-0-|


  E  E  E  S S E  E  E  S S    E  E  E  S S E  E  E  S S  
----------------------------|----------------------------|
----------------------------|----------------------------|
----------------------------|----------------------------|
--0--0--0--0-0-0--0--0--0-0-|--0--0--0--0-0-0--0--0--0-0-|


  E  E  E  S S E  E  E  S S    E  E  E  S S E  E  E  S S  
----------------------------|----------------------------|
----------------------------|----------------------------|
----------------------------|----------------------------|
--0--0--0--0-0-0--0--0--0-0-|--0--0--0--0-0-0--0--0--0-0-|


  E  E  E  S S E  E  E  S S    E  E  E  S S E  E  E  S S  
----------------------------|----------------------------|
----------------------------|----------------------------|
----------------------------|----------------------------|
--0--0--0--0-0-0--0--0--0-0-|--0--0--0--0-0-0--0--0--0-0-|


  E  E  E  S S E  E  E  S S    E  E  E  S S E  E  E  S S  
----------------------------|----------------------------|
----------------------------|----------------------------|
----------------------------|----------------------------|
--0--0--0--0-0-0--0--0--0-0-|--0--0--0--0-0-0--0--0--0-0-|


  E  E  E  S S E  E  E  S S    E  E  E  S S E  E  E  S S  
----------------------------|----------------------------|
----------------------------|----------------------------|
----------------------------|----------------------------|
--0--0--0--0-0-0--0--0--0-0-|--0--0--0--0-0-0--0--0--0-0-|


  E  E  E  S S E  E  E  S S    E  E  E  S S E  E  E  S S  
----------------------------|----------------------------|
----------------------------|----------------------------|
----------------------------|----------------------------|
--0--0--0--0-0-0--0--0--0-0-|--0--0--0--0-0-0--0--0--0-0-|


  E  E  E  S S E  E  E  S S    E  E  E  S S E  E  E  S S  
----------------------------|----------------------------|
----------------------------|----------------------------|
----------------------------|----------------------------|
--0--0--0--0-0-0--0--0--0-0-|--0--0--0--0-0-0--0--0--0-0-|


  E  E  E  S S E  E  E  S S    E  E  E  S S E  E  E  S S  
----------------------------|----------------------------|
----------------------------|----------------------------|
----------------------------|----------------------------|
--0--0--0--0-0-0--0--0--0-0-|--0--0--0--0-0-0--0--0--0-0-|


  E  E  E  S S E  E  E  S S    E  E  E  S S E  E  E  S S  
----------------------------|----------------------------|
----------------------------|----------------------------|
----------------------------|----------------------------|
--0--0--0--0-0-0--0--0--0-0-|--0--0--0--0-0-0--0--0--0-0-|


  E  E  E  S S E  E  E  S S    E  E  E  S S E  E  E  S S  
----------------------------|----------------------------|
----------------------------|----------------------------|
----------------------------|----------------------------|
--0--0--0--0-0-0--0--0--0-0-|--0--0--0--0-0-0--0--0--0-0-|


  E  E  E  S S E  E  E  S S    E  E  E  S S E  E  E  S S  
----------------------------|----------------------------|
----------------------------|----------------------------|
----------------------------|----------------------------|
--0--0--0--0-0-0--0--0--0-0-|--0--0--0--0-0-0--0--0--0-0-|


  E  E  E  S S E  E  E  S S    E  E  E  S S E  E  E  S S  
----------------------------|----------------------------|
----------------------------|----------------------------|
----------------------------|----------------------------|
--0--0--0--0-0-0--0--0--0-0-|--0--0--0--0-0-0--0--0--0-0-|


  E  E  E  S S E  E  E  S S    E  E  E  S S E  E  E  S S  
----------------------------|----------------------------|
----------------------------|----------------------------|
----------------------------|----------------------------|
--0--0--0--0-0-0--0--0--0-0-|--0--0--0--0-0-0--0--0--0-0-|


  E  E  E  S S E  E  E  S S    E  E  E  S S E  E  E  S S  
----------------------------|----------------------------|
----------------------------|----------------------------|
----------------------------|----------------------------|
--0--0--0--0-0-0--0--0--0-0-|--0--0--0--0-0-0--0--0--0-0-|


  E  E  E  S S E  E  E  S S    E  E  E  S S E  E  E  S S  
----------------------------|----------------------------|
----------------------------|----------------------------|
----------------------------|----------------------------|
--0--0--0--0-0-0--0--0--0-0-|--0--0--0--0-0-0--0--0--0-0-|


  E  E  E  S S E  E  E  S S    E  E  E  S S E  E  E  S S  
----------------------------|----------------------------|
----------------------------|----------------------------|
----------------------------|----------------------------|
--0--0--0--0-0-0--0--0--0-0-|--0--0--0--0-0-0--0--0--0-0-|


  E  E  E  S S E  E  E  S S    E  E  E  S S E  E  E  S S  
----------------------------|----------------------------|
----------------------------|----------------------------|
----------------------------|----------------------------|
--0--0--0--0-0-0--0--0--0-0-|--0--0--0--0-0-0--0--0--0-0-|


  E  E  E  S S E  E  E  S S    E  E  E  S S E  E  E  S S  
----------------------------|----------------------------|
----------------------------|----------------------------|
----------------------------|----------------------------|
--0--0--0--0-0-0--0--0--0-0-|--0--0--0--0-0-0--0--0--0-0-|


  E  E  E  S S E  E  E  S S    E  E  E  S S E  E  E  S S  
----------------------------|----------------------------|
----------------------------|----------------------------|
----------------------------|----------------------------|
--0--0--0--0-0-0--0--0--0-0-|--0--0--0--0-0-0--0--0--0-0-|


  E  E  E  S S E  E  E  S S    E  E  E  S S E  E  E  S S  
----------------------------|----------------------------|
----------------------------|----------------------------|
----------------------------|----------------------------|
--0--0--0--0-0-0--0--0--0-0-|--0--0--0--0-0-0--0--0--0-0-|


  E  E  E  S S E  E  E  S S    E  E  E  S S E  E  E  S S  
----------------------------|----------------------------|
----------------------------|----------------------------|
----------------------------|----------------------------|
--0--0--0--0-0-0--0--0--0-0-|--0--0--0--0-0-0--0--0--0-0-|


  E  E  E  S S E  E  E  S S    E  E  E  S S E  E  E  S S  
----------------------------|----------------------------|
----------------------------|----------------------------|
----------------------------|----------------------------|
--0--0--0--0-0-0--0--0--0-0-|--0--0--0--0-0-0--0--0--0-0-|


  E  E  E  S S E  E  E  S S    E  E  E  S S E  E  E  S S  
----------------------------|----------------------------|
----------------------------|----------------------------|
----------------------------|----------------------------|
--0--0--0--0-0-0--0--0--0-0-|--0--0--0--0-0-0--0--0--0-0-|


  E  E  E  S S E  E  E  S S    E  E  E  S S E  E  E  S S  
----------------------------|----------------------------|
----------------------------|----------------------------|
----------------------------|----------------------------|
--0--0--0--0-0-0--0--0--0-0-|--0--0--0--0-0-0--0--0--0-0-|


  E  E  E  S S E  E  E  S S    E  E  E  S S E  E  E  S S  
----------------------------|----------------------------|
----------------------------|----------------------------|
----------------------------|----------------------------|
--0--0--0--0-0-0--0--0--0-0-|--0--0--0--0-0-0--0--0--0-0-|


  E  E  E  S S E  E  E  S S    E  E  E  S S E  E  E  S S  
----------------------------|----------------------------|
----------------------------|----------------------------|
----------------------------|----------------------------|
--0--0--0--0-0-0--0--0--0-0-|--0--0--0--0-0-0--0--0--0-0-|


  E  E  E  S S E  E  E  S S    E  E  E  S S E  E  E  S S  
----------------------------|----------------------------|
----------------------------|----------------------------|
----------------------------|----------------------------|
--0--0--0--0-0-0--0--0--0-0-|--0--0--0--0-0-0--0--0--0-0-|


  E  E  E  S S E  E  E  S S    E  E  E  S S E  E  E  S S  
----------------------------|----------------------------|
----------------------------|----------------------------|
----------------------------|----------------------------|
--0--0--0--0-0-0--0--0--0-0-|--0--0--0--0-0-0--0--0--0-0-|


  E  E  E  S S E  E  E  S S    E  E  E  S S E  E  E  S S  
----------------------------|----------------------------|
----------------------------|----------------------------|
----------------------------|----------------------------|
--0--0--0--0-0-0--0--0--0-0-|--0--0--0--0-0-0--0--0--0-0-|


  E  E  E  S S E  E  E  S S    E  E  E  S S E  E  E  S S  
----------------------------|----------------------------|
----------------------------|----------------------------|
----------------------------|----------------------------|
--0--0--0--0-0-0--0--0--0-0-|--0--0--0--0-0-0--0--0--0-0-|


  E  E  E  S S E  E  E  S S    E  E  E  S S E  E  E  S S  
----------------------------|----------------------------|
----------------------------|----------------------------|
----------------------------|----------------------------|
--0--0--0--0-0-0--0--0--0-0-|--0--0--0--0-0-0--0--0--0-0-|


  E  E  E  S S E  E  E  S S    E  E  E  S S E  E  E  S S  
----------------------------|----------------------------|
----------------------------|----------------------------|
----------------------------|----------------------------|
--0--0--0--0-0-0--0--0--0-0-|--0--0--0--0-0-0--0--0--0-0-|


  E  E  E  S S E  E  E  S S    E  E  E  S S E  E  E  S S  
----------------------------|----------------------------|
----------------------------|----------------------------|
----------------------------|----------------------------|
--0--0--0--0-0-0--0--0--0-0-|--0--0--0--0-0-0--0--0--0-0-|


  E  E  E  S S E  E  E  S S    E  E  E  S S E  E  E  S S  
----------------------------|----------------------------|
----------------------------|----------------------------|
----------------------------|----------------------------|
--0--0--0--0-0-0--0--0--0-0-|--0--0--0--0-0-0--0--0--0-0-|


  E  E  E  S S E  E  E  S S    E  E  E  S S E  E  E  S S  
----------------------------|----------------------------|
----------------------------|----------------------------|
----------------------------|----------------------------|
--0--0--0--0-0-0--0--0--0-0-|--0--0--0--0-0-0--0--0--0-0-|


  E  E  E  S S E  E  E  S S    E  E  E  S S E  E  E  S S  
----------------------------|----------------------------|
----------------------------|----------------------------|
----------------------------|----------------------------|
--0--0--0--0-0-0--0--0--0-0-|--0--0--0--0-0-0--0--0--0-0-|


  E  E  E  S S E  E  E  S S    E  E  E  S S E  E  E  S S  
----------------------------|----------------------------|
----------------------------|----------------------------|
----------------------------|----------------------------|
--0--0--0--0-0-0--0--0--0-0-|--0--0--0--0-0-0--0--0--0-0-|


  E  E  E  S S E  E  E  S S    E  E  E  S S E  E  E  S S  
----------------------------|----------------------------|
----------------------------|----------------------------|
----------------------------|----------------------------|
--0--0--0--0-0-0--0--0--0-0-|--0--0--0--0-0-0--0--0--0-0-|


  E  E  E  S S E  E  E  S S    E  E  E  S S E  E  E  S S  
----------------------------|----------------------------|
----------------------------|----------------------------|
----------------------------|----------------------------|
--0--0--0--0-0-0--0--0--0-0-|--0--0--0--0-0-0--0--0--0-0-|


  E  E  E  S S E  E  E  S S    E  E  E  S S E  E  E  S S  
----------------------------|----------------------------|
----------------------------|----------------------------|
----------------------------|----------------------------|
--0--0--0--0-0-0--0--0--0-0-|--0--0--0--0-0-0--0--0--0-0-|


  E  E  E  S S E  E  E  S S    E  E  E  S S E  E  E  S S  
----------------------------|----------------------------|
----------------------------|----------------------------|
----------------------------|----------------------------|
--0--0--0--0-0-0--0--0--0-0-|--0--0--0--0-0-0--0--0--0-0-|


  E  E  E  S S E  E  E  S S    E  E  E  S S E  E  E  S S  
----------------------------|----------------------------|
----------------------------|----------------------------|
----------------------------|----------------------------|
--0--0--0--0-0-0--0--0--0-0-|--0--0--0--0-0-0--0--0--0-0-|


  E  E  E  S S E  E  E  S S    E  E  E  S S E  E  E  S S  
----------------------------|----------------------------|
----------------------------|----------------------------|
----------------------------|----------------------------|
--0--0--0--0-0-0--0--0--0-0-|--0--0--0--0-0-0--0--0--0-0-|


       |--3--|       |--3--|          |--3--|             
  Q    E  E  E  Q    E  E  E     Q    E  E  E  Q    Q     
------------------------------|--------------------------|
------------------------------|--------------------------|
------------------------------|----------------8----5----|
--5----5--5--5--5----5--5--5--|--5----5--5--5------------|


       |--3--|       |--3--|          |--3--|              
  Q    E  E  E  Q    E  E  E     Q    E  E  E   Q    Q     
------------------------------|---------------------------|
------------------------------|---------------------------|
------------------------------|----------------10----5----|
--5----5--5--5--5----5--5--5--|--5----5--5--5-------------|


       |--3--|       |--3--|          |--3--|             
  Q    E  E  E  Q    E  E  E     Q    E  E  E  Q    Q     
------------------------------|--------------------------|
------------------------------|--------------------------|
------------------------------|----------------8----5----|
--5----5--5--5--5----5--5--5--|--5----5--5--5------------|


       |--3--|       |--3--|          |--3--|              
  Q    E  E  E  Q    E  E  E     Q    E  E  E   Q    Q     
------------------------------|---------------------------|
------------------------------|---------------------------|
------------------------------|----------------10----5----|
--5----5--5--5--5----5--5--5--|--5----5--5--5-------------|


       |--3--|       |--3--|          |--3--|             
  Q    E  E  E  Q    E  E  E     Q    E  E  E  Q    Q     
------------------------------|--------------------------|
------------------------------|--------------------------|
------------------------------|----------------8----5----|
--5----5--5--5--5----5--5--5--|--5----5--5--5------------|


       |--3--|       |--3--|          |--3--|              
  Q    E  E  E  Q    E  E  E     Q    E  E  E   Q    Q     
------------------------------|---------------------------|
------------------------------|---------------------------|
------------------------------|----------------10----5----|
--5----5--5--5--5----5--5--5--|--5----5--5--5-------------|


       |--3--|       |--3--|          |--3--|             
  Q    E  E  E  Q    E  E  E     Q    E  E  E  Q    Q     
------------------------------|--------------------------|
------------------------------|--------------------------|
------------------------------|----------------8----5----|
--5----5--5--5--5----5--5--5--|--5----5--5--5------------|


       |--3--|       |--3--|          |--3--|                                  
  Q    E  E  E  Q    E  E  E     Q    E  E  E   Q    Q       W                 
------------------------------|---------------------------|-------------------|
------------------------------|---------------------------|-------------------|
------------------------------|----------------10----5----|-------------------|
--5----5--5--5--5----5--5--5--|--5----5--5--5-------------|-------------------|


  W                   W                   W                   W                 
-------------------|-------------------|-------------------|-------------------|
-------------------|-------------------|-------------------|-------------------|
-------------------|-------------------|-------------------|-------------------|
-------------------|-------------------|-------------------|-------------------|


  W                   W                   W                   W                 
-------------------|-------------------|-------------------|-------------------|
-------------------|-------------------|-------------------|-------------------|
-------------------|-------------------|-------------------|--7----------------|
-------------------|-------------------|-------------------|-------------------|


  W                   W                   W                   W                 
-------------------|-------------------|-------------------|-------------------|
-------------------|-------------------|-------------------|-------------------|
--L----------------|--7----------------|--L----------------|--5----------------|
-------------------|-------------------|-------------------|-------------------|


  W                   W                   W                 
-------------------|-------------------|-------------------|
-------------------|-------------------|-------------------|
--L----------------|--7----------------|--L----------------|
-------------------|-------------------|-------------------|


     |-3-|         |-3-|            |-3-|    |-3-|            
  E  S S S Q    E  S S S Q       E  S S S E  S S S Q    Q     
------------------------------|------------------------------|
------------------------------|------------------------------|
------------------------------|--------------------8----8----|
--3--5-5-5-5----3--5-5-5-5----|--3--5-5-5-5--3-3-3-----------|


     |-3-|         |-3-|            |-3-|    |-3-|              
  E  S S S Q    E  S S S Q       E  S S S E  S S S  Q     Q     
------------------------------|--------------------------------|
------------------------------|--------------------------------|
------------------------------|--------------------10----10----|
--3--5-5-5-5----3--5-5-5-5----|--3--5-5-5-5--3-3-3-------------|


     |-3-|         |-3-|            |-3-|    |-3-|            
  E  S S S Q    E  S S S Q       E  S S S E  S S S Q    Q     
------------------------------|------------------------------|
------------------------------|------------------------------|
------------------------------|--------------------8----8----|
--3--5-5-5-5----3--5-5-5-5----|--3--5-5-5-5--3-3-3-----------|


     |-3-|         |-3-|            |-3-|    |-3-|              
  E  S S S Q    E  S S S Q       E  S S S E  S S S  Q     Q     
------------------------------|--------------------------------|
------------------------------|--------------------------------|
------------------------------|--------------------10----10----|
--3--5-5-5-5----3--5-5-5-5----|--3--5-5-5-5--3-3-3-------------|


  W                   W                   W                   W                 
-------------------|-------------------|-------------------|-------------------|
-------------------|-------------------|-------------------|-------------------|
--7----------------|--L----------------|--7----------------|--L----------------|
-------------------|-------------------|-------------------|-------------------|


  W                   W                   W                   W                 
-------------------|-------------------|-------------------|-------------------|
-------------------|-------------------|-------------------|-------------------|
--5----------------|--L----------------|--7----------------|--L----------------|
-------------------|-------------------|-------------------|-------------------|


  W                   W                   W                   W                 
-------------------|-------------------|-------------------|-------------------|
-------------------|-------------------|-------------------|-------------------|
--7----------------|--L----------------|--7----------------|--L----------------|
-------------------|-------------------|-------------------|-------------------|


  W                   W                   W                   W                 
-------------------|-------------------|-------------------|-------------------|
-------------------|-------------------|-------------------|-------------------|
--5----------------|--L----------------|--7----------------|--L----------------|
-------------------|-------------------|-------------------|-------------------|


     |-3-|         |-3-|            |-3-|    |-3-|            
  E  S S S Q    E  S S S Q       E  S S S E  S S S Q    Q     
------------------------------|------------------------------|
------------------------------|------------------------------|
------------------------------|--------------------8----8----|
--3--5-5-5-5----3--5-5-5-5----|--3--5-5-5-5--3-3-3-----------|


     |-3-|         |-3-|            |-3-|    |-3-|              
  E  S S S Q    E  S S S Q       E  S S S E  S S S  Q     Q     
------------------------------|--------------------------------|
------------------------------|--------------------------------|
------------------------------|--------------------10----10----|
--3--5-5-5-5----3--5-5-5-5----|--3--5-5-5-5--3-3-3-------------|


     |-3-|         |-3-|            |-3-|    |-3-|            
  E  S S S Q    E  S S S Q       E  S S S E  S S S Q    Q     
------------------------------|------------------------------|
------------------------------|------------------------------|
------------------------------|--------------------8----8----|
--3--5-5-5-5----3--5-5-5-5----|--3--5-5-5-5--3-3-3-----------|


     |-3-|         |-3-|            |-3-|    |-3-|              
  E  S S S Q    E  S S S Q       E  S S S E  S S S  Q     Q     
------------------------------|--------------------------------|
------------------------------|--------------------------------|
------------------------------|--------------------10----10----|
--3--5-5-5-5----3--5-5-5-5----|--3--5-5-5-5--3-3-3-------------|


  H.           Q       H.           Q       W                 
--------------------|--------------------|-------------------|
--------------------|--------------------|-------------------|
--------------------|--------------------|-------------------|
--5------------7----|--8------------8----|--3----------------|


  H        H           H.           Q       H.           Q     
--------------------|--------------------|--------------------|
--------------------|--------------------|--------------------|
--------------------|--------------------|---------------7----|
--0--------3--------|--5------------7----|--8-----------------|


  W                   H        H           H.           Q     
-------------------|--------------------|--------------------|
-------------------|--------------------|--------------------|
--5----------------|--3--------2--------|--------------------|
-------------------|--------------------|--5------------7----|


  H.           Q       W                   H        H         
--------------------|-------------------|--------------------|
--------------------|-------------------|--------------------|
--------------------|-------------------|--------------------|
--8------------8----|--3----------------|--0--------3--------|


  H.           Q       H.           Q       W                 
--------------------|--------------------|-------------------|
--------------------|--------------------|-------------------|
--------------------|---------------7----|--5----------------|
--5------------7----|--8-----------------|-------------------|


  H        H           S S S S Q.     S S S S S S  
--------------------|-----------------------------|
--------------------|-----------------------------|
--3--------2--------|-----------------------------|
--------------------|--3-5-5-5-5------3-3-6-6-6-6-|


  S S S S Q.     S S S S S S    S S S S Q.     S S S S S S  
-----------------------------|-----------------------------|
-----------------------------|-----------------------------|
-----------------------------|-----------------------------|
--3-5-5-5-5------3-3-8-8-8-8-|--3-5-5-5-5------3-3-6-6-6-6-|


  S S S S Q.     Q.        S S S S Q.     S S S S S S  
------------------------|-----------------------------|
------------------------|-----------------------------|
------------------------|-----------------------------|
--3-5-5-5-5-------------|--3-5-5-5-5------3-3-6-6-6-6-|


  S S S S Q.     S S S S S S    S S S S Q.     S S S S S S  
-----------------------------|-----------------------------|
-----------------------------|-----------------------------|
-----------------------------|-----------------------------|
--3-5-5-5-5------3-3-8-8-8-8-|--3-5-5-5-5------3-3-6-6-6-6-|


  S S S S Q.     Q.        E  E  E  S S E  E  E  E   
------------------------|---------------------------|
------------------------|---------------------------|
------------------------|---------------------------|
--3-5-5-5-5-------------|--3--5--3--5-5-6--5--3--5--|


  E  E  E  S S E  E  E  E     E  E  E  S S E  E  E  E   
---------------------------|---------------------------|
---------------------------|---------------------------|
---------------------------|---------------------------|
--3--5--3--5-5-6--5--3--5--|--3--5--3--5-5-6--5--3--5--|


  E  E  E  S S E  E  E  E     E  E  E  S S E  E  E  E   
---------------------------|---------------------------|
---------------------------|---------------------------|
---------------------------|---------------------------|
--3--5--3--5-5-6--5--3--5--|--3--5--3--5-5-6--5--3--5--|


  E  E  E  S S E  E  E  E     E  E  E  S S E  E  E  E   
---------------------------|---------------------------|
---------------------------|---------------------------|
---------------------------|---------------------------|
--3--5--3--5-5-6--5--3--5--|--3--5--3--5-5-6--5--3--5--|


  E  E  E  S S E  E  E  E     E  E  E  S S E  E  E  E   
---------------------------|---------------------------|
---------------------------|---------------------------|
---------------------------|---------------------------|
--3--5--3--5-5-6--5--3--5--|--3--5--3--5-5-6--5--3--5--|


  E  E  E  S S E  E  E  E     E  E  E  S S E  E  E  E   
---------------------------|---------------------------|
---------------------------|---------------------------|
---------------------------|---------------------------|
--3--5--3--5-5-6--5--3--5--|--3--5--3--5-5-6--5--3--5--|


  E  E  E  S S E  E  E  E     E  E  E  S S E  E  E  E   
---------------------------|---------------------------|
---------------------------|---------------------------|
---------------------------|---------------------------|
--3--5--3--5-5-6--5--3--5--|--3--5--3--5-5-6--5--3--5--|


  E  E  E  S S E  E  E  E     E  E  E  S S E  E  E  E   
---------------------------|---------------------------|
---------------------------|---------------------------|
---------------------------|---------------------------|
--3--5--3--5-5-6--5--3--5--|--3--5--3--5-5-6--5--3--5--|


  E  E  E  S S E  E  E  E     W                   H         H         
---------------------------|-------------------|---------------------|
---------------------------|-------------------|---------------------|
---------------------------|-------------------|---------------------|
--3--5--3--5-5-6--5--3--5--|--5----------------|--L--------10--------|


  W                   H        Q    Q       W                 
-------------------|---------------------|-------------------|
-------------------|---------------------|-------------------|
-------------------|---------------------|-------------------|
--8----------------|--L--------8----7----|--5----------------|


  H         H           W                   H        Q    Q     
---------------------|-------------------|---------------------|
---------------------|-------------------|---------------------|
---------------------|-------------------|---------------------|
--L--------10--------|--8----------------|--L--------8----7----|


  W                   H        H           W                 
-------------------|--------------------|-------------------|
-------------------|--------------------|-------------------|
-------------------|--------------------|-------------------|
--3----------------|--L--------8--------|--7----------------|


  H        Q    Q       W                   H         H         
---------------------|-------------------|---------------------|
---------------------|-------------------|---------------------|
---------------------|-------------------|---------------------|
--L--------8----7----|--5----------------|--L--------10--------|


  W                   H        Q    Q       W                 
-------------------|---------------------|-------------------|
-------------------|---------------------|-------------------|
-------------------|---------------------|-------------------|
--8----------------|--L--------8----7----|--5----------------|


  H         H           W                   H        Q    Q     
---------------------|-------------------|---------------------|
---------------------|-------------------|---------------------|
---------------------|-------------------|---------------------|
--L--------10--------|--8----------------|--L--------8----7----|


  W                   H        H           W                 
-------------------|--------------------|-------------------|
-------------------|--------------------|-------------------|
-------------------|--------------------|-------------------|
--3----------------|--L--------8--------|--7----------------|


  H        Q    Q       W                   H         H         
---------------------|-------------------|---------------------|
---------------------|-------------------|---------------------|
---------------------|-------------------|---------------------|
--L--------8----7----|--5----------------|--L--------10--------|


  W                   H        Q    Q       S S S S E  S S S S E  S S S S  
-------------------|---------------------|--------------------------------|
-------------------|---------------------|--------------------------------|
-------------------|---------------------|--------------------------------|
--8----------------|--L--------8----7----|--5-5-5-5-5--5-5-5-5-5--5-5-5-5-|


  E  S S S S Q.     Q       S S S S E  S S S S E  S S S S  
-------------------------|--------------------------------|
-------------------------|--------------------------------|
-------------------------|--------------------------------|
--5--5-5-5-5-6------6----|--5-5-5-5-5--5-5-5-5-5--5-5-5-5-|


  E  S S S S Q.     Q       S S S S E  S S S S E  S S S S  
-------------------------|--------------------------------|
-------------------------|--------------------------------|
-------------------------|--------------------------------|
--5--5-5-5-5-6------6----|--5-5-5-5-5--5-5-5-5-5--5-5-5-5-|


  E  S S S S Q.     Q       S S S S E  S S S S E  S S S S  
-------------------------|--------------------------------|
-------------------------|--------------------------------|
-------------------------|--------------------------------|
--5--5-5-5-5-6------6----|--5-5-5-5-5--5-5-5-5-5--5-5-5-5-|


  E  S S S S Q.     Q       S S S S E  S S S S E  S S S S  
-------------------------|--------------------------------|
-------------------------|--------------------------------|
-------------------------|--------------------------------|
--5--5-5-5-5-6------6----|--5-5-5-5-5--5-5-5-5-5--5-5-5-5-|


  E  S S S S Q.     Q       S S S S E  S S S S E  S S S S  
-------------------------|--------------------------------|
-------------------------|--------------------------------|
-------------------------|--------------------------------|
--5--5-5-5-5-6------6----|--5-5-5-5-5--5-5-5-5-5--5-5-5-5-|


  E  S S S S Q.     Q       S S S S E  S S S S E  S S S S  
-------------------------|--------------------------------|
-------------------------|--------------------------------|
-------------------------|--------------------------------|
--5--5-5-5-5-6------6----|--5-5-5-5-5--5-5-5-5-5--5-5-5-5-|


  E  S S S S Q.     Q       S S S S E  S S S S E  S S S S  
-------------------------|--------------------------------|
-------------------------|--------------------------------|
-------------------------|--------------------------------|
--5--5-5-5-5-6------6----|--5-5-5-5-5--5-5-5-5-5--5-5-5-5-|


  E  S S S S Q.     Q       S S S S E  S S S S E  S S S S  
-------------------------|--------------------------------|
-------------------------|--------------------------------|
-------------------------|--------------------------------|
--5--5-5-5-5-6------6----|--5-5-5-5-5--5-5-5-5-5--5-5-5-5-|


  E  S S S S Q.     Q       S S S S E  S S S S E  S S S S  
-------------------------|--------------------------------|
-------------------------|--------------------------------|
-------------------------|--------------------------------|
--5--5-5-5-5-6------6----|--5-5-5-5-5--5-5-5-5-5--5-5-5-5-|


  E  S S S S Q.     Q       S S S S E  S S S S E  S S S S  
-------------------------|--------------------------------|
-------------------------|--------------------------------|
-------------------------|--------------------------------|
--5--5-5-5-5-6------6----|--5-5-5-5-5--5-5-5-5-5--5-5-5-5-|


  E  S S S S Q.     Q       S S S S E  S S S S E  S S S S  
-------------------------|--------------------------------|
-------------------------|--------------------------------|
-------------------------|--------------------------------|
--5--5-5-5-5-6------6----|--5-5-5-5-5--5-5-5-5-5--5-5-5-5-|


  E  S S S S Q.     Q       S S S S E  S S S S E  S S S S  
-------------------------|--------------------------------|
-------------------------|--------------------------------|
-------------------------|--------------------------------|
--5--5-5-5-5-6------6----|--5-5-5-5-5--5-5-5-5-5--5-5-5-5-|


  E  S S S S Q.     Q       S S S S E  S S S S E  S S S S  
-------------------------|--------------------------------|
-------------------------|--------------------------------|
-------------------------|--------------------------------|
--5--5-5-5-5-6------6----|--5-5-5-5-5--5-5-5-5-5--5-5-5-5-|


  E  S S S S Q.     Q       S S S S E  S S S S E  S S S S  
-------------------------|--------------------------------|
-------------------------|--------------------------------|
-------------------------|--------------------------------|
--5--5-5-5-5-6------6----|--5-5-5-5-5--5-5-5-5-5--5-5-5-5-|


  E  S S S S Q.     Q       S S S S E  S S S S E  S S S S  
-------------------------|--------------------------------|
-------------------------|--------------------------------|
-------------------------|--------------------------------|
--5--5-5-5-5-6------6----|--5-5-5-5-5--5-5-5-5-5--5-5-5-5-|


  E  S S S S Q.     Q       S S S S E  S S S S E  S S S S  
-------------------------|--------------------------------|
-------------------------|--------------------------------|
-------------------------|--------------------------------|
--5--5-5-5-5-6------6----|--5-5-5-5-5--5-5-5-5-5--5-5-5-5-|


  E  S S S S Q.     Q       W                   W                 
-------------------------|-------------------|-------------------|
-------------------------|-------------------|-------------------|
-------------------------|-------------------|-------------------|
--5--5-5-5-5-6------6----|-------------------|-------------------|


  W                   W                   W                   W                 
-------------------|-------------------|-------------------|-------------------|
-------------------|-------------------|-------------------|-------------------|
-------------------|-------------------|-------------------|-------------------|
-------------------|-------------------|-------------------|-------------------|


  W                   W                   W                   W                 
-------------------|-------------------|-------------------|-------------------|
-------------------|-------------------|-------------------|-------------------|
-------------------|-------------------|-------------------|-------------------|
-------------------|-------------------|-------------------|-------------------|


  W                   W                   W                   W                 
-------------------|-------------------|-------------------|-------------------|
-------------------|-------------------|-------------------|-------------------|
-------------------|-------------------|-------------------|-------------------|
-------------------|-------------------|-------------------|-------------------|


  W                  
-------------------||
-------------------||
-------------------||
-------------------||




Duration Legend
---------------
W - whole
H - half
Q - quarter
E - 8th
S - 16th
T - 32nd
X - 64th
. - note dotted
|-n-|  - n-tuplets


Tablature Legend
----------------
L - tied note
x - dead note
g - grace note
(n) - ghost note
> - accentuded note
NH - natural harmonic
AH - artificial harmonic
TH - tapped harmonic
SH - semi harmonic
PH - pitch harmonic
h - hammer on
p - pull off
b - bend
br - bendRelease
pb - preBend
pbr - preBendRelease
brb - bendReleaseBend
\n/ - tremolo bar dip
\n - tremolo bar dive
-/n - tremolo bar Release up
/n\ - tremolo bar inverted dip
/n - tremolo bar return
-\n - tremolo bar Release down
S - shift slide
s - legato slide
/ -  slide into from below or out of upwards
\ -  slide into from above or out of downwards
~ - vibrato
W - wide vibrato
tr - trill
TP - tremolo picking
T - tapping
S - slap
P - pop
< - fade in
^ - brush up
v - brush down

            
            
Suggest correction
Creating personal tab
Creating personal tab
You can edit any tab online and save it as your Personal.

You can edit, replace or remove any tab part or add personal notes – all changes will be seen only by you.

Personal tabs can be accessed anytime from any device, even offline.
Learn more »
Give kudos to tab author, rate the tab!
1 2 3 4 5
comments
print report bad tab
guest
You may want to rate the tab now too:
select rating
Wanna post a correction for this tab? Suggest correction