Oops, an error
Loading. Please wait.

Scarred tab

version 2
version 2

Whole song

Interactive

141 views 1 this week
no commentswrite comment
1 2 3 4 5
3 more votes to show rating
add to favorites
×
Save as Personal and add changes to this tab that will be seen only by you. Learn more ›
×
You can save this tab as Personal to edit and correct it or add notes. All changes will be seen only by you. Learn more »
launch autoscroll
font size
0
reset
how to read this tab
guitar tuner
edit
Autoscroll
slow
fast
+/-
esc
set tempo
stop
                                    Scarred                                     

Transcribed by an unregistered user

                                                                      Iced Earth
Bass
Tempo : 144



       Intro ( Tempo : 120 )                                          
       W                        W                   W                 
F#||-------------------------|-------------------|-------------------|
C#||*------------------------|-------------------|-------------------|
G#||*------------------------|-------------------|-------------------|
D#||---0---------------------|--L----------------|--1----------------|


  W                   W                   W                   W                 
-------------------|-------------------|-------------------|-------------------|
-------------------|-------------------|-------------------|-------------------|
-------------------|-------------------|-------------------|-------------------|
--1----------------|--0----------------|--L----------------|--1----------------|


  H        E    Q.        W                   W                 
-----------------------|-------------------|-------------------|
-----------------------|-------------------|-------------------|
-----------------------|-------------------|-------------------|
--L--------1S--13------|--0----------------|--L----------------|


  W                   W                   W                   W                 
-------------------|-------------------|-------------------|-------------------|
-------------------|-------------------|-------------------|-------------------|
-------------------|-------------------|-------------------|-------------------|
--1----------------|--1----------------|--0----------------|--L----------------|


                                                Tempo : 144              
  W                   H        E    Q.          H           E  E  E  E   
-------------------|-----------------------||---------------------------|
-------------------|-----------------------||*--------------------------|
-------------------|-----------------------||*--------------------------|
--1----------------|--L--------1S--13------||---0-----------L--0--L--0--|


  W                   H        E  E  E  E     W                 4x
-------------------|-----------------------|--------------------||
-------------------|-----------------------|-------------------*||
-------------------|--1--------L--1--L--1--|--L----------------*||
--L----------------|-----------------------|--------------------||


  Tempo : 120                                                      
  H           E  E  E  E     W                   W                 
--------------------------|-------------------|-------------------|
-----------------2--L-----|-------------------|-------------------|
-----------------------2--|--L----------------|-------------------|
--0-----------L-----------|-------------------|--1----------------|


  W                   H        E  E  E  E     W                 
-------------------|-----------------------|-------------------|
-------------------|--------------2--L-----|-------------------|
-------------------|--------------------2--|--L----------------|
--1----------------|--0--------L-----------|-------------------|


                                                1st Verse              
  W                   H        E    Q.          H         E  E  E  E   
-------------------|-----------------------||-------------------------|
-------------------|-----------------------||*---------------2--L-----|
-------------------|-----------------------||*---------------------2--|
--1----------------|--L--------1S--13------||---0---------L-----------|


  W                   W                   W                 4x
-------------------|-------------------|--------------------||
-------------------|-------------------|-------------------*||
--L----------------|-------------------|-------------------*||
-------------------|--1----------------|--1-----------------||


   Tempo : 144                                                          
   H           E  E  E  E     W                   H        E  E  E  E   
---------------------------|-------------------|-----------------------|
*--------------------------|-------------------|-----------------------|
*--------------------------|-------------------|--1--------L--1--L--1--|
---0-----------L--0--L--0--|--L----------------|-----------------------|


                        Tempo : 120                                  
  W                 4x  H           E  E  E  E     W                 
--------------------||--------------------------|-------------------|
-------------------*||-----------------2--L-----|-------------------|
--L----------------*||-----------------------2--|--L----------------|
--------------------||--0-----------L-----------|-------------------|


  W                   W                   H        E  E  E  E   
-------------------|-------------------|-----------------------|
-------------------|-------------------|--------------2--L-----|
-------------------|-------------------|--------------------2--|
--1----------------|--1----------------|--0--------L-----------|


  W                   W                   H        E    Q.      
-------------------|-------------------|-----------------------|
-------------------|-------------------|-----------------------|
--L----------------|-------------------|-----------------------|
-------------------|--1----------------|--L--------1S--13------|


  2nd Verse                                                      
  H         E  E  E  E     W                   W                 
------------------------|-------------------|-------------------|
---------------2--L-----|-------------------|-------------------|
---------------------2--|--L----------------|-------------------|
--0---------L-----------|-------------------|--1----------------|


  W                     H        E  E  E  E     W                 
-------------------||------------------------|-------------------|
-------------------||*--------------2--L-----|-------------------|
-------------------||*--------------------2--|--L----------------|
--1----------------||---0--------L-----------|-------------------|


  W                   W                 3x
-------------------|--------------------||
-------------------|-------------------*||
-------------------|-------------------*||
--1----------------|--1-----------------||


   Chorus ( Tempo : 144 )                                  
   H                      E  E  E  E     W                 
--------------------------------------|-------------------|
*-------------------------------------|-------------------|
*-------------------------------------|-------------------|
---0----------------------L--0--L--0--|--L----------------|


                                                Interlude ( Tempo : 132 )  
  H        E  E  E  E     W                 4x  W                          
-----------------------|--------------------||----------------------------|
-----------------------|-------------------*||----------------------------|
--1--------L--1--L--1--|--L----------------*||----------------------------|
-----------------------|--------------------||----------------------------|


  W                   W                   W                 
-------------------|-------------------|-------------------|
-------------------|-------------------|-------------------|
-------------------|-------------------|-------------------|
-------------------|-------------------|-------------------|


    3rd Verse                                                 
    W                   W                   W                 
|--------------------|-------------------|-------------------|
|*-------------------|-------------------|-------------------|
|*-------------------|-------------------|-------------------|
|---0----------------|--L----------------|--3----------------|


  W                   W                   W                   W                 
-------------------|-------------------|-------------------|-------------------|
-------------------|-------------------|-------------------|-------------------|
-------------------|-------------------|-------------------|-------------------|
--L----------------|--1----------------|--L----------------|--0----------------|


                        Tempo : 144                          
  W                     Q           S S S S S S S S S S S S  
--------------------||--------------------------------------|
-------------------*||--------------------------------------|
-------------------*||--------------------------------------|
--L-----------------||--0-----------0-0-0-0-0-0-0-0-0-0-0-0-|


  S S S S S S S S S S S S S S S S    Q    S S S S S S S S S S S S  
----------------------------------|-------------------------------|
----------------------------------|-------------------------------|
----------------------------------|-------------------------------|
--0-0-0-0-0-0-0-0-0-0-0-0-0-0-0-0-|--1----1-1-1-1-1-1-1-1-1-1-1-1-|


  S S S S S S S S S S S S S S S S    Q    S S S S S S S S S S S S  
----------------------------------|-------------------------------|
----------------------------------|-------------------------------|
----------------------------------|-------------------------------|
--1-1-1-1-1-1-1-1-1-1-1-1-1-1-1-1-|--0----0-0-0-0-0-0-0-0-0-0-0-0-|


  S S S S S S S S S S S S S S S S    Q    S S S S S S S S S S S S  
----------------------------------|-------------------------------|
----------------------------------|-------------------------------|
----------------------------------|-------------------------------|
--0-0-0-0-0-0-0-0-0-0-0-0-0-0-0-0-|--1----1-1-1-1-1-1-1-1-1-1-1-1-|


  S S S S S S S S S S S S S S S S    Q    S S S S S S S S S S S S  
----------------------------------|-------------------------------|
----------------------------------|-------------------------------|
----------------------------------|-------------------------------|
--1-1-1-1-1-1-1-1-1-1-1-1-1-1-1-1-|--0----0-0-0-0-0-0-0-0-0-0-0-0-|


  S S S S S S S S S S S S S S S S    Q    S S S S S S S S S S S S  
----------------------------------|-------------------------------|
----------------------------------|-------------------------------|
----------------------------------|-------------------------------|
--0-0-0-0-0-0-0-0-0-0-0-0-0-0-0-0-|--1----1-1-1-1-1-1-1-1-1-1-1-1-|


  S S S S S S S S S S S S S S S S    Q    S S S S S S S S S S S S  
----------------------------------|-------------------------------|
----------------------------------|-------------------------------|
----------------------------------|-------------------------------|
--1-1-1-1-1-1-1-1-1-1-1-1-1-1-1-1-|--0----0-0-0-0-0-0-0-0-0-0-0-0-|


  S S S S S S S S S S S S S S S S    Q    S S S S S S S S S S S S  
----------------------------------|-------------------------------|
----------------------------------|-------------------------------|
----------------------------------|-------------------------------|
--0-0-0-0-0-0-0-0-0-0-0-0-0-0-0-0-|--1----1-1-1-1-1-1-1-1-1-1-1-1-|


  S S S S S S S S S S S S S S S S    Q    S S S S S S S S S S S S  
----------------------------------|-------------------------------|
----------------------------------|-------------------------------|
----------------------------------|-------------------------------|
--1-1-1-1-1-1-1-1-1-1-1-1-1-1-1-1-|--0----0-0-0-0-0-0-0-0-0-0-0-0-|


  S S S S S S S S S S S S S S S S    Q    S S S S S S S S S S S S  
----------------------------------|-------------------------------|
----------------------------------|-------------------------------|
----------------------------------|-------------------------------|
--0-0-0-0-0-0-0-0-0-0-0-0-0-0-0-0-|--1----1-1-1-1-1-1-1-1-1-1-1-1-|


  S S S S S S S S S S S S S S S S    Q    S S S S S S S S S S S S  
----------------------------------|-------------------------------|
----------------------------------|-------------------------------|
----------------------------------|-------------------------------|
--1-1-1-1-1-1-1-1-1-1-1-1-1-1-1-1-|--0----0-0-0-0-0-0-0-0-0-0-0-0-|


  S S S S S S S S S S S S S S S S    Q    S S S S S S S S S S S S  
----------------------------------|-------------------------------|
----------------------------------|-------------------------------|
----------------------------------|-------------------------------|
--0-0-0-0-0-0-0-0-0-0-0-0-0-0-0-0-|--1----1-1-1-1-1-1-1-1-1-1-1-1-|


  S S S S S S S S S S S S S S S S    Q    S S S S S S S S S S S S  
----------------------------------|-------------------------------|
----------------------------------|-------------------------------|
----------------------------------|-------------------------------|
--1-1-1-1-1-1-1-1-1-1-1-1-1-1-1-1-|--0----0-0-0-0-0-0-0-0-0-0-0-0-|


  S S S S S S S S S S S S S S S S    Q    S S S S S S S S S S S S  
----------------------------------|-------------------------------|
----------------------------------|-------------------------------|
----------------------------------|-------------------------------|
--0-0-0-0-0-0-0-0-0-0-0-0-0-0-0-0-|--1----1-1-1-1-1-1-1-1-1-1-1-1-|


  S S S S S S S S S S S S S S S S    Q    S S S S S S S S S S S S  
----------------------------------|-------------------------------|
----------------------------------|-------------------------------|
----------------------------------|-------------------------------|
--1-1-1-1-1-1-1-1-1-1-1-1-1-1-1-1-|--0----0-0-0-0-0-0-0-0-0-0-0-0-|


  S S S S S S S S S S S S S S S S    Q    S S S S S S S S S S S S  
----------------------------------|-------------------------------|
----------------------------------|-------------------------------|
----------------------------------|-------------------------------|
--0-0-0-0-0-0-0-0-0-0-0-0-0-0-0-0-|--1----1-1-1-1-1-1-1-1-1-1-1-1-|


  S S S S S S S S S S S S S S S S    Q    S S S S S S S S S S S S  
----------------------------------|-------------------------------|
----------------------------------|-------------------------------|
----------------------------------|-------------------------------|
--1-1-1-1-1-1-1-1-1-1-1-1-1-1-1-1-|--0----0-0-0-0-0-0-0-0-0-0-0-0-|


  S S S S S S S S S S S S S S S S    Q    S S S S S S S S S S S S  
----------------------------------|-------------------------------|
----------------------------------|-------------------------------|
----------------------------------|-------------------------------|
--0-0-0-0-0-0-0-0-0-0-0-0-0-0-0-0-|--1----1-1-1-1-1-1-1-1-1-1-1-1-|


  S S S S S S S S S S S S S S S S    Q    S S S S S S S S S S S S  
----------------------------------|-------------------------------|
----------------------------------|-------------------------------|
----------------------------------|-------------------------------|
--1-1-1-1-1-1-1-1-1-1-1-1-1-1-1-1-|--0----0-0-0-0-0-0-0-0-0-0-0-0-|


  S S S S S S S S S S S S S S S S    Q    S S S S S S S S S S S S  
----------------------------------|-------------------------------|
----------------------------------|-------------------------------|
----------------------------------|-------------------------------|
--0-0-0-0-0-0-0-0-0-0-0-0-0-0-0-0-|--1----1-1-1-1-1-1-1-1-1-1-1-1-|


                                       Chorus ( Tempo : 144 )              
  S S S S S S S S S S S S S S S S      H                      E  E  E  E   
----------------------------------||--------------------------------------|
----------------------------------||*-------------------------------------|
----------------------------------||*-------------------------------------|
--1-1-1-1-1-1-1-1-1-1-1-1-1-1-1-1-||---0----------------------L--0--L--0--|


  W                   H        E  E  E  E     W                 4x
-------------------|-----------------------|--------------------||
-------------------|-----------------------|-------------------*||
-------------------|--1--------L--1--L--1--|--L----------------*||
--L----------------|-----------------------|--------------------||


   E  E  E  E  E  E  E  E     E  E  E  E  E  E  E  E   
---------------------------|--------------------------|
*--------------------------|--------------------------|
*--------------------------|--------------------------|
---0--0--0--0--0--0--0--0--|--0--0--0--0--0--0--0--0--|


  E  E  E  E  E  E  E  E     E  E  E  E  E  E  E  E       W                  
--------------------------|---------------------------||-------------------||
--------------------------|--------------------------*||-------------------||
--1--1--1--1--1--1--1--1--|--1--1--1--1--1--1--1--1--*||--0----------------||
--------------------------|---------------------------||-------------------||




Duration Legend
---------------
W - whole
H - half
Q - quarter
E - 8th
S - 16th
T - 32nd
X - 64th
. - note dotted
|-n-|  - n-tuplets


Tablature Legend
----------------
L - tied note
x - dead note
g - grace note
(n) - ghost note
> - accentuded note
NH - natural harmonic
AH - artificial harmonic
TH - tapped harmonic
SH - semi harmonic
PH - pitch harmonic
h - hammer on
p - pull off
b - bend
br - bendRelease
pb - preBend
pbr - preBendRelease
brb - bendReleaseBend
\n/ - tremolo bar dip
\n - tremolo bar dive
-/n - tremolo bar Release up
/n\ - tremolo bar inverted dip
/n - tremolo bar return
-\n - tremolo bar Release down
S - shift slide
s - legato slide
/ -  slide into from below or out of upwards
\ -  slide into from above or out of downwards
~ - vibrato
W - wide vibrato
tr - trill
TP - tremolo picking
T - tapping
S - slap
P - pop
< - fade in
^ - brush up
v - brush down
Suggest correction
Creating personal tab
Creating personal tab
You can edit any tab online and save it as your Personal.

You can edit, replace or remove any tab part or add personal notes – all changes will be seen only by you.

Personal tabs can be accessed anytime from any device, even offline.
Learn more »
Give kudos to tab author, rate the tab!
1 2 3 4 5
comments
print report bad tab
guest
You may want to rate the tab now too:
select rating
Wanna post a correction for this tab? Suggest correction