Oops, an error
Loading. Please wait.

Ten Thousand Strong tab

version 1
version 1

Whole song

Interactive

7,730 views 1 this week
3 commentsread comments
1 2 3 4 5
x 4
add to favorites
×
Save as Personal and add changes to this tab that will be seen only by you. Learn more ›
×
You can save this tab as Personal to edit and correct it or add notes. All changes will be seen only by you. Learn more »
launch autoscroll
font size
0
reset
how to read this tab
guitar tuner
edit
Autoscroll
slow
fast
+/-
esc
set tempo
stop
                            Ten_Thousand_Strong                               


                                                                    Iced_Earth

Guitar 1



         PM PM PM PM PM PM    PM PM PM PM PM PM  
      E  S  S  S  S  S  S  E  S  S  S  S  S  S   
D#||--------------------------------------------|
A#||--------------------------------------------|
F#||--------------------------------------------|
C#||--------------------------------------------|
G#||--2--------------------2--------------------|
D#||--0--0--0--0--0--0--0--0--0--0--0--0--0--0--|


     PM PM PM PM PM PM                      PM PM PM PM    PM PM PM PM PM PM  
  E  S  S  S  S  S  S  E  E  E  E     E  E  S  S  S  S  E  S  S  S  S  SS   
-----------------------------------|----------------------------------------
-----------------------------------|----------------------------------------
-----------------------------------|----------------------------------------
-----------------------------------|----------------------------------------
--2--------------------2--4-----5--|--L--5--------------2-------------------
--0--0--0--0--0--0--0--0--2--x--3--|--L--2--0--0--0--0--0--0--0--0--0--0--0-


     PM PM PM PM PM PM                      PM PM PM PM    PM PM PM PM PM PM  
  E  S  S  S  S  S  S  E  E  E  E     E  E  S  S  S  S  E  S  S  S  S  SS   
-----------------------------------|----------------------------------------
-----------------------------------|----------------------------------------
-----------------------------------|----------------------------------------
--------------------------------5--|--L--5----------------------------------
--2--------------------2--4-----3--|--L--2--------------2-------------------
--0--0--0--0--0--0--0--0--2--x-----|--------0--0--0--0--0--0--0--0--0--0--0-


     PM PM PM PM PM PM                     PM PM PM PM PM PM     
  E  S  S  S  S  S  S  E  E  E  E     Q    E  S  S  E  E  E  E   
-----------------------------------|----------------------------|
-----------------------------------|----------------------------|
-----------------------------------|----------------------------|
-----------------------------------|----------------------------|
--2--------------------2--4-----5--|--L----5--5--5--5--7--5--3--|
--0--0--0--0--0--0--0--0--2--x-----|----------------------------|


       PM PM PM PM PM PM             PM PM PM PM    PM PM PM PM PM PM  
  Q    E  S  S  E  E  E  E     E  E  S  S  S  S  E  S  S  S  S  S  S   
----------------------------|-----------------------------------------|
----------------------------|-----------------------------------------|
----------------------------|-----------------------------------------|
-------------------------5--|--L--5-----------------------------------|
--L----3--3--3--3--2--0--3--|--L--2--------------2--------------------|
----------------------------|--------0--0--0--0--0--0--0--0--0--0--0--|


     PM PM PM PM PM PM                      PM PM PM PM    PM PM PM PM PM PM  
  E  S  S  S  S  S  S  E  E  E  E     E  E  S  S  S  S  E  S  S  S  S  SS   
-----------------------------------|----------------------------------------
-----------------------------------|----------------------------------------
-----------------------------------|----------------------------------------
-----------------------------------|----------------------------------------
--2--------------------2--4-----5--|--L--5--------------2-------------------
--0--0--0--0--0--0--0--0--2--x--3--|--L--2--0--0--0--0--0--0--0--0--0--0--0-


     PM PM PM PM PM PM                      PM PM PM PM    PM PM PM PM PM PM  
  E  S  S  S  S  S  S  E  E  E  E     E  E  S  S  S  S  E  S  S  S  S  SS   
-----------------------------------|----------------------------------------
-----------------------------------|----------------------------------------
-----------------------------------|----------------------------------------
--------------------------------5--|--L--5----------------------------------
--2--------------------2--4-----3--|--L--2--------------2-------------------
--0--0--0--0--0--0--0--0--2--x-----|--------0--0--0--0--0--0--0--0--0--0--0-


     PM PM PM PM PM PM                     PM PM PM PM PM PM     
  E  S  S  S  S  S  S  E  E  E  E     Q    E  S  S  E  E  E  E   
-----------------------------------|----------------------------|
-----------------------------------|----------------------------|
-----------------------------------|----------------------------|
-----------------------------------|----------------------------|
--2--------------------2--4-----5--|--L----5--5--5--5--7--5--3--|
--0--0--0--0--0--0--0--0--2--x-----|----------------------------|


       PM PM PM PM PM PM             PM PM PM PM    PM PM PM PM PM PM  
  Q    E  S  S  E  E  E  E     E  E  S  S  S  S  E  S  S  S  S  S  S   
----------------------------|-----------------------------------------|
----------------------------|-----------------------------------------|
----------------------------|-----------------------------------------|
-------------------------5--|--L--5-----------------------------------|
--L----3--3--3--3--2--0--3--|--L--2--------------2--------------------|
----------------------------|--------0--0--0--0--0--0--0--0--0--0--0--|


     PM PM PM PM PM PM                      PM PM PM PM    PM PM PM PM PM PM  
  E  S  S  S  S  S  S  E  E  E  E     E  E  S  S  S  S  E  S  S  S  S  SS   
-----------------------------------|----------------------------------------
-----------------------------------|----------------------------------------
-----------------------------------|----------------------------------------
-----------------------------------|----------------------------------------
--2--------------------2--4-----5--|--L--5--------------2-------------------
--0--0--0--0--0--0--0--0--2--x--3--|--L--2--0--0--0--0--0--0--0--0--0--0--0-


     PM PM PM PM PM PM                      PM PM PM PM    PM PM PM PM PM PM  
  E  S  S  S  S  S  S  E  E  E  E     E  E  S  S  S  S  E  S  S  S  S  SS   
-----------------------------------|----------------------------------------
-----------------------------------|----------------------------------------
-----------------------------------|----------------------------------------
--------------------------------5--|--L--5----------------------------------
--2--------------------2--4-----3--|--L--2--------------2-------------------
--0--0--0--0--0--0--0--0--2--x-----|--------0--0--0--0--0--0--0--0--0--0--0-


     PM PM PM PM PM PM                     PM PM PM PM PM PM     
  E  S  S  S  S  S  S  E  E  E  E     Q    E  S  S  E  E  E  E   
-----------------------------------|----------------------------|
-----------------------------------|----------------------------|
-----------------------------------|----------------------------|
-----------------------------------|----------------------------|
--2--------------------2--4-----5--|--L----5--5--5--5--7--5--3--|
--0--0--0--0--0--0--0--0--2--x-----|----------------------------|


       PM PM PM PM PM PM             PM PM PM PM    PM PM PM PM PM PM  
  Q    E  S  S  E  E  E  E     E  E  S  S  S  S  E  S  S  S  S  S  S   
----------------------------|-----------------------------------------|
----------------------------|-----------------------------------------|
----------------------------|-----------------------------------------|
-------------------------5--|--L--5-----------------------------------|
--L----3--3--3--3--2--0--3--|--L--2--------------2--------------------|
----------------------------|--------0--0--0--0--0--0--0--0--0--0--0--|


     PM PM PM PM PM PM                                  
  E  S  S  S  S  S  S  E  E  E  E     W                 
-----------------------------------|-------------------|
-----------------------------------|-------------------|
-----------------------------------|-------------------|
--------------------------------9--|--L----------------|
--2--------------------2--4-----7--|--L----------------|
--0--0--0--0--0--0--0--0--2--x-----|-------------------|


  H        E  E   E   E     W                   H        E  E   E   E   
-------------------------|-------------------|-------------------------|
-------------------------|-------------------|-------------------------|
-------------------------|-------------------|-------------------------|
--L--------9--7--(x)--5--|--L----------------|--L--------5--9--(x)--7--|
--L--------7--5--(x)--3--|--L----------------|--L--------3--7--(x)--5--|
-------------------------|-------------------|-------------------------|


  W                   H        E  E   E   E     W                 
-------------------|-------------------------|-------------------|
-------------------|-------------------------|-------------------|
-------------------|-------------------------|-------------------|
--L----------------|--L--------7--5--(x)--4--|--L----------------|
--L----------------|--L--------5--3--(x)--2--|--L----------------|
-------------------|-------------------------|-------------------|


  H        H           W                   H        E  E   E   E   
--------------------|-------------------|-------------------------|
--------------------|-------------------|-------------------------|
--------------------|-------------------|-------------------------|
--5--------7--------|--9----------------|--L--------9--7--(x)--5--|
--3--------5--------|--7----------------|--L--------7--5--(x)--3--|
--------------------|-------------------|-------------------------|


  W                   H        E  E   E   E     W                 
-------------------|-------------------------|-------------------|
-------------------|-------------------------|-------------------|
-------------------|-------------------------|-------------------|
--L----------------|--L--------5--9--(x)--7--|--L----------------|
--L----------------|--L--------3--7--(x)--5--|--L----------------|
-------------------|-------------------------|-------------------|


  H        E  E   E   E     W                   H        H         
-------------------------|-------------------|--------------------|
-------------------------|-------------------|--------------------|
-------------------------|-------------------|--------------------|
--L--------7--5--(x)--4--|--L----------------|--5--------7--------|
--L--------5--3--(x)--2--|--L----------------|--3--------5--------|
-------------------------|-------------------|--------------------|


     PM PM PM PM PM PM    PM PM PM PM PM PM  
  E  S  S  S  S  S  S  E  S  S  S  S  S  S   
--------------------------------------------|
--------------------------------------------|
--------------------------------------------|
--------------------------------------------|
--2--------------------2--------------------|
--0--0--0--0--0--0--0--0--0--0--0--0--0--0--|


     PM PM PM PM PM PM                      PM PM PM PM    PM PM PM PM PM PM  
  E  S  S  S  S  S  S  E  E  E  E     E  E  S  S  S  S  E  S  S  S  S  SS   
-----------------------------------|----------------------------------------
-----------------------------------|----------------------------------------
-----------------------------------|----------------------------------------
-----------------------------------|----------------------------------------
--2--------------------2--4-----5--|--L--5--------------2-------------------
--0--0--0--0--0--0--0--0--2--x--3--|--L--2--0--0--0--0--0--0--0--0--0--0--0-


     PM PM PM PM PM PM                      PM PM PM PM    PM PM PM PM PM PM  
  E  S  S  S  S  S  S  E  E  E  E     E  E  S  S  S  S  E  S  S  S  S  SS   
-----------------------------------|----------------------------------------
-----------------------------------|----------------------------------------
-----------------------------------|----------------------------------------
--------------------------------5--|--L--5----------------------------------
--2--------------------2--4-----3--|--L--2--------------2-------------------
--0--0--0--0--0--0--0--0--2--x-----|--------0--0--0--0--0--0--0--0--0--0--0-


     PM PM PM PM PM PM                     PM PM PM PM PM PM     
  E  S  S  S  S  S  S  E  E  E  E     Q    E  S  S  E  E  E  E   
-----------------------------------|----------------------------|
-----------------------------------|----------------------------|
-----------------------------------|----------------------------|
-----------------------------------|----------------------------|
--2--------------------2--4-----5--|--L----5--5--5--5--7--5--3--|
--0--0--0--0--0--0--0--0--2--x-----|----------------------------|


       PM PM PM PM PM PM             PM PM PM PM    PM PM PM PM PM PM  
  Q    E  S  S  E  E  E  E     E  E  S  S  S  S  E  S  S  S  S  S  S   
----------------------------|-----------------------------------------|
----------------------------|-----------------------------------------|
----------------------------|-----------------------------------------|
-------------------------5--|--L--5-----------------------------------|
--L----3--3--3--3--2--0--3--|--L--2--------------2--------------------|
----------------------------|--------0--0--0--0--0--0--0--0--0--0--0--|


     PM PM PM PM PM PM                      PM PM PM PM    PM PM PM PM PM PM  
  E  S  S  S  S  S  S  E  E  E  E     E  E  S  S  S  S  E  S  S  S  S  S  S   
-----------------------------------|----------------------------------------
-----------------------------------|----------------------------------------
-----------------------------------|----------------------------------------
-----------------------------------|----------------------------------------
--2--------------------2--4-----5--|--L--5--------------2-------------------
--0--0--0--0--0--0--0--0--2--x--3--|--L--2--0--0--0--0--0--0--0--0--0--0--0-


     PM PM PM PM PM PM                      PM PM PM PM    PM PM PM PM PM PM  
  E  S  S  S  S  S  S  E  E  E  E     E  E  S  S  S  S  E  S  S  S  S  SS   
-----------------------------------|----------------------------------------
-----------------------------------|----------------------------------------
-----------------------------------|----------------------------------------
--------------------------------5--|--L--5----------------------------------
--2--------------------2--4-----3--|--L--2--------------2-------------------
--0--0--0--0--0--0--0--0--2--x-----|--------0--0--0--0--0--0--0--0--0--0--0-


     PM PM PM PM PM PM                     PM PM PM PM PM PM     
  E  S  S  S  S  S  S  E  E  E  E     Q    E  S  S  E  E  E  E   
-----------------------------------|----------------------------|
-----------------------------------|----------------------------|
-----------------------------------|----------------------------|
-----------------------------------|----------------------------|
--2--------------------2--4-----5--|--L----5--5--5--5--7--5--3--|
--0--0--0--0--0--0--0--0--2--x-----|----------------------------|


       PM PM PM PM PM PM             PM PM PM PM    PM PM PM PM PM PM  
  Q    E  S  S  E  E  E  E     E  E  S  S  S  S  E  S  S  S  S  S  S   
----------------------------|-----------------------------------------|
----------------------------|-----------------------------------------|
----------------------------|-----------------------------------------|
-------------------------5--|--L--5-----------------------------------|
--L----3--3--3--3--2--0--3--|--L--2--------------2--------------------|
----------------------------|--------0--0--0--0--0--0--0--0--0--0--0--|


     PM PM PM PM PM PM                                  
  E  S  S  S  S  S  S  E  E  E  E     W                 
-----------------------------------|-------------------|
-----------------------------------|-------------------|
-----------------------------------|-------------------|
--------------------------------9--|--L----------------|
--2--------------------2--4-----7--|--L----------------|
--0--0--0--0--0--0--0--0--2--x-----|-------------------|


  H        E  E   E   E     W                   H        E  E   E   E   
-------------------------|-------------------|-------------------------|
-------------------------|-------------------|-------------------------|
-------------------------|-------------------|-------------------------|
--L--------9--7--(x)--5--|--L----------------|--L--------5--9--(x)--7--|
--L--------7--5--(x)--3--|--L----------------|--L--------3--7--(x)--5--|
-------------------------|-------------------|-------------------------|


  W                   H        E  E   E   E     W                 
-------------------|-------------------------|-------------------|
-------------------|-------------------------|-------------------|
-------------------|-------------------------|-------------------|
--L----------------|--L--------7--5--(x)--4--|--L----------------|
--L----------------|--L--------5--3--(x)--2--|--L----------------|
-------------------|-------------------------|-------------------|


  H        H           W                   H        E  E   E   E   
--------------------|-------------------|-------------------------|
--------------------|-------------------|-------------------------|
--------------------|-------------------|-------------------------|
--5--------7--------|--9----------------|--L--------9--7--(x)--5--|
--3--------5--------|--7----------------|--L--------7--5--(x)--3--|
--------------------|-------------------|-------------------------|


  W                   H        E  E   E   E     W                 
-------------------|-------------------------|-------------------|
-------------------|-------------------------|-------------------|
-------------------|-------------------------|-------------------|
--L----------------|--L--------5--9--(x)--7--|--L----------------|
--L----------------|--L--------3--7--(x)--5--|--L----------------|
-------------------|-------------------------|-------------------|


  H        E  E   E   E     W                   H        H         
-------------------------|-------------------|--------------------|
-------------------------|-------------------|--------------------|
-------------------------|-------------------|--------------------|
--L--------7--5--(x)--4--|--L----------------|--5--------7--------|
--L--------5--3--(x)--2--|--L----------------|--3--------5--------|
-------------------------|-------------------|--------------------|


     PM PM PM PM      PM PM PM PM                 PM PM PM  PM  PM PM  
  E  S  S  S  S   E   S  S  S  S Q        Q.      S  S  E   E   E  E   
---------------------------------------|------------------------------|
---------------------------------------|------------------------------|
---------------------------------------|------------------------------|
---------------------------------------|------------------------------|
--7--7--7--7--7--10--10-10-10-10-7~----|--L------10-10-10--12--10--9--|
---------------------------------------|------------------------------|


     PM PM PM PM    PM PM PM PM           PM PM    PM PM PM PM    PM  
  E  S  S  S  S  E  S  S  S  S  E   E     E  E  E  S  S  E  E  E  E   
---------------------------------------|-----------------------------|
---------------------------------------|-----------------------------|
---------------------------------------|-----------------------------|
-----------------7---------------------|--------5--------------7-----|
--5--5--5--5--5-----5--5--5--5--5s--3--|--3--3-----3--3--5--5-----5--|
---------------------------------------|-----------------------------|


     PM PM PM PM      PM PM PM PM                 PM PM PM  PM  PM PM  
  E  S  S  S  S   E   S  S  S  S Q        Q.      S  S  E   E   E  E   
---------------------------------------|------------------------------|
---------------------------------------|------------------------------|
---------------------------------------|------------------------------|
---------------------------------------|------------------------------|
--7--7--7--7--7--10--10-10-10-10-7~----|--L------10-10-10--12--10--9--|
---------------------------------------|------------------------------|


     PM PM PM PM    PM PM PM PM           PM PM    PM PM PM PM    PM  
  E  S  S  S  S  E  S  S  S  S  E   E     E  E  E  S  S  E  E  E  E   
---------------------------------------|-----------------------------|
---------------------------------------|-----------------------------|
---------------------------------------|-----------------------------|
-----------------7---------------------|--------5--------------7-----|
--5--5--5--5--5-----5--5--5--5--5s--3--|--3--3-----3--3--5--5-----5--|
---------------------------------------|-----------------------------|


     PM PM PM PM      PM PM PM PM                 PM PM PM  PM  PM PM  
  E  S  S  S  S   E   S  S  S  S Q        Q.      S  S  E   E   E  E   
---------------------------------------|------------------------------|
---------------------------------------|------------------------------|
---------------------------------------|------------------------------|
---------------------------------------|------------------------------|
--7--7--7--7--7--10--10-10-10-10-7~----|--L------10-10-10--12--10--9--|
---------------------------------------|------------------------------|


     PM PM PM PM    PM PM PM PM           PM PM    PM PM PM PM    PM  
  E  S  S  S  S  E  S  S  S  S  E   E     E  E  E  S  S  E  E  E  E   
---------------------------------------|-----------------------------|
---------------------------------------|-----------------------------|
---------------------------------------|-----------------------------|
-----------------7---------------------|--------5--------------7-----|
--5--5--5--5--5-----5--5--5--5--5s--3--|--3--3-----3--3--5--5-----5--|
---------------------------------------|-----------------------------|


     PM PM PM PM      PM PM PM PM                 PM PM PM  PM  PM PM  
  E  S  S  S  S   E   S  S  S  S Q        Q.      S  S  E   E   E  E   
---------------------------------------|------------------------------|
---------------------------------------|------------------------------|
---------------------------------------|------------------------------|
---------------------------------------|------------------------------|
--7--7--7--7--7--10--10-10-10-10-7~----|--L------10-10-10--12--10--9--|
---------------------------------------|------------------------------|


     PM PM PM PM    PM PM PM PM           PM PM    PM PM PM PM    PM  
  E  S  S  S  S  E  S  S  S  S  E   E     E  E  E  S  S  E  E  E  E   
---------------------------------------|-----------------------------|
---------------------------------------|-----------------------------|
---------------------------------------|-----------------------------|
-----------------7---------------------|--------5--------------7-----|
--5--5--5--5--5-----5--5--5--5--5s--3--|--3--3-----3--3--5--5-----5--|
---------------------------------------|-----------------------------|


  W                   H        E  E   E   E     W                 
-------------------|-------------------------|-------------------|
-------------------|-------------------------|-------------------|
-------------------|-------------------------|-------------------|
--9----------------|--L--------9--7--(x)--5--|--L----------------|
--7----------------|--L--------7--5--(x)--3--|--L----------------|
-------------------|-------------------------|-------------------|


  H        E  E   E   E     W                   H        E  E   E   E   
-------------------------|-------------------|-------------------------|
-------------------------|-------------------|-------------------------|
-------------------------|-------------------|-------------------------|
--L--------5--9--(x)--7--|--L----------------|--L--------7--5--(x)--4--|
--L--------3--7--(x)--5--|--L----------------|--L--------5--3--(x)--2--|
-------------------------|-------------------|-------------------------|


  W                   H        H           W                 
-------------------|--------------------|-------------------|
-------------------|--------------------|-------------------|
-------------------|--------------------|-------------------|
--L----------------|--5--------7--------|--9----------------|
--L----------------|--3--------5--------|--7----------------|
-------------------|--------------------|-------------------|


  H        E  E   E   E     W                   H        E  E   E   E   
-------------------------|-------------------|-------------------------|
-------------------------|-------------------|-------------------------|
-------------------------|-------------------|-------------------------|
--L--------9--7--(x)--5--|--L----------------|--L--------5--9--(x)--7--|
--L--------7--5--(x)--3--|--L----------------|--L--------3--7--(x)--5--|
-------------------------|-------------------|-------------------------|


  W                   H        E  E   E   E     W                 
-------------------|-------------------------|-------------------|
-------------------|-------------------------|-------------------|
-------------------|-------------------------|-------------------|
--L----------------|--L--------7--5--(x)--4--|--L----------------|
--L----------------|--L--------5--3--(x)--2--|--L----------------|
-------------------|-------------------------|-------------------|


  H        H           W                   H        E  E   E   E   
--------------------|-------------------|-------------------------|
--------------------|-------------------|-------------------------|
--------------------|-------------------|-------------------------|
--5--------7--------|--9----------------|--L--------9--7--(x)--5--|
--3--------5--------|--7----------------|--L--------7--5--(x)--3--|
--------------------|-------------------|-------------------------|


  W                   H        E  E   E   E     W                 
-------------------|-------------------------|-------------------|
-------------------|-------------------------|-------------------|
-------------------|-------------------------|-------------------|
--L----------------|--L--------5--9--(x)--7--|--L----------------|
--L----------------|--L--------3--7--(x)--5--|--L----------------|
-------------------|-------------------------|-------------------|


  H        E  E   E   E     W                   H        H         
-------------------------|-------------------|--------------------|
-------------------------|-------------------|--------------------|
-------------------------|-------------------|--------------------|
--L--------7--5--(x)--4--|--L----------------|--5--------7--------|
--L--------5--3--(x)--2--|--L----------------|--3--------5--------|
-------------------------|-------------------|--------------------|


  W                   H        E  E   E   E     W                 
-------------------|-------------------------|-------------------|
-------------------|-------------------------|-------------------|
-------------------|-------------------------|-------------------|
--9----------------|--L--------9--7--(x)--5--|--L----------------|
--7----------------|--L--------7--5--(x)--3--|--L----------------|
-------------------|-------------------------|-------------------|


  H        E  E   E   E     W                   H        E  E   E   E   
-------------------------|-------------------|-------------------------|
-------------------------|-------------------|-------------------------|
-------------------------|-------------------|-------------------------|
--L--------5--9--(x)--7--|--L----------------|--L--------7--5--(x)--4--|
--L--------3--7--(x)--5--|--L----------------|--L--------5--3--(x)--2--|
-------------------------|-------------------|-------------------------|


  W                   H        H         
-------------------|--------------------|
-------------------|--------------------|
-------------------|--------------------|
--L----------------|--5--------7--------|
--L----------------|--3--------5--------|
-------------------|--------------------|


     PM PM PM PM PM PM    PM PM PM PM PM PM  
  E  S  S  S  S  S  S  E  S  S  S  S  S  S   
--------------------------------------------|
--------------------------------------------|
--------------------------------------------|
--------------------------------------------|
--2--------------------2--------------------|
--0--0--0--0--0--0--0--0--0--0--0--0--0--0--|


     PM PM PM PM PM PM                      PM PM PM PM    PM PM PM PM PM PM  
  E  S  S  S  S  S  S  E  E  E  E     E  E  S  S  S  S  E  S  S  S  S  SS   
-----------------------------------|----------------------------------------
-----------------------------------|----------------------------------------
-----------------------------------|----------------------------------------
-----------------------------------|----------------------------------------
--2--------------------2--4-----5--|--L--5--------------2-------------------
--0--0--0--0--0--0--0--0--2--x--3--|--L--2--0--0--0--0--0--0--0--0--0--0--0-


     PM PM PM PM PM PM                      PM PM PM PM    PM PM PM PM PM PM  
  E  S  S  S  S  S  S  E  E  E  E     E  E  S  S  S  S  E  S  S  S  S  SS   
-----------------------------------|----------------------------------------
-----------------------------------|----------------------------------------
-----------------------------------|----------------------------------------
--------------------------------5--|--L--5----------------------------------
--2--------------------2--4-----3--|--L--2--------------2-------------------
--0--0--0--0--0--0--0--0--2--x-----|--------0--0--0--0--0--0--0--0--0--0--0-


     PM PM PM PM PM PM                      PM PM PM PM    PM PM PM PM PM PM  
  E  S  S  S  S  S  S  E  E  E  E     E  E  S  S  S  S  E  S  S  S  S  SS   
-----------------------------------|----------------------------------------
-----------------------------------|----------------------------------------
-----------------------------------|----------------------------------------
-----------------------------------|----------------------------------------
--2--------------------2--4-----5--|--L--5--------------2-------------------
--0--0--0--0--0--0--0--0--2--x--3--|--L--2--0--0--0--0--0--0--0--0--0--0--0-


     PM PM PM PM PM PM                      PM PM PM PM    PM PM PM PM PM PM  
  E  S  S  S  S  S  S  E  E  E  E     E  E  S  S  S  S  E  S  S  S  S  SS   
-----------------------------------|----------------------------------------
-----------------------------------|----------------------------------------
-----------------------------------|----------------------------------------
--------------------------------5--|--L--5----------------------------------
--2--------------------2--4-----3--|--L--2--------------2-------------------
--0--0--0--0--0--0--0--0--2--x-----|--------0--0--0--0--0--0--0--0--0--0--0-


     PM PM PM PM PM PM                      PM PM PM PM    PM PM PM PM PM PM  
  E  S  S  S  S  S  S  E  E  E  E     E  E  S  S  S  S  E  S  S  S  S  SS   
-----------------------------------|----------------------------------------
-----------------------------------|----------------------------------------
-----------------------------------|----------------------------------------
-----------------------------------|----------------------------------------
--2--------------------2--4-----5--|--L--5--------------2-------------------
--0--0--0--0--0--0--0--0--2--x--3--|--L--2--0--0--0--0--0--0--0--0--0--0--0-


     PM PM PM PM PM PM                      PM PM PM PM    PM PM PM PM PM PM  
  E  S  S  S  S  S  S  E  E  E  E     E  E  S  S  S  S  E  S  S  S  S  S  S   
-----------------------------------|----------------------------------------
-----------------------------------|----------------------------------------
-----------------------------------|----------------------------------------
--------------------------------5--|--L--5----------------------------------
--2--------------------2--4-----3--|--L--2--------------2-------------------
--0--0--0--0--0--0--0--0--2--x-----|--------0--0--0--0--0--0--0--0--0--0--0-


     PM PM PM PM PM PM                      PM PM PM PM    PM PM PM PM PM PM  
  E  S  S  S  S  S  S  E  E  E  E     E  E  S  S  S  S  E  S  S  S  S  SS   
-----------------------------------|----------------------------------------
-----------------------------------|----------------------------------------
-----------------------------------|----------------------------------------
-----------------------------------|----------------------------------------
--2--------------------2--4-----5--|--L--5--------------2-------------------
--0--0--0--0--0--0--0--0--2--x--3--|--L--2--0--0--0--0--0--0--0--0--0--0--0-


     PM PM PM PM PM PM                                             
  E  S  S  S  S  S  S  E  E  E  E     E  E  E  H        E          
-----------------------------------|-----------------------|-----||
-----------------------------------|-----------------------|-----||
-----------------------------------|-----------------------|-----||
--------------------------------5--|--L--5-----------------|-----||
--2--------------------2--4-----3--|--L--2--2--------------|-----||
--0--0--0--0--0--0--0--0--2--x-----|--------0--------------|-----||




Duration Legend
---------------
W - whole
H - half
Q - quarter
E - 8th
S - 16th
T - 32nd
X - 64th
. - note dotted
|-n-|  - n-tuplets


Tablature Legend
----------------
L - tied note
x - dead note
g - grace note
(n) - ghost note
> - accentuded note
NH - natural harmonic
AH - artificial harmonic
TH - tapped harmonic
SH - semi harmonic
PH - pitch harmonic
h - hammer on
p - pull off
b - bend
br - bendRelease
pb - preBend
pbr - preBendRelease
brb - bendReleaseBend
\n/ - tremolo bar dip
\n - tremolo bar dive
-/n - tremolo bar Release up
/n\ - tremolo bar inverted dip
/n - tremolo bar return
-\n - tremolo bar Release down
S - shift slide
s - legato slide
/ -  slide into from below or out of upwards
\ -  slide into from above or out of downwards
~ - vibrato
W - wide vibrato
tr - trill
TP - tremolo picking
T - tapping
S - slap
P - pop
< - fade in
^ - brush up
v - brush down

            
            
Suggest correction
Creating personal tab
Creating personal tab
You can edit any tab online and save it as your Personal.

You can edit, replace or remove any tab part or add personal notes – all changes will be seen only by you.

Personal tabs can be accessed anytime from any device, even offline.
Learn more »
comments
print report bad tab
3 comments total.
0 reply
RocknNtheNameOf 10 Oct 23, 2007 11:45 AM

thanx metal defender! ur the best!

0 reply
tatertot13 10 Dec 12, 2007 05:10 PM

yes thanks

0 reply
breadtruck 244 Mar 26, 2012 12:58 PM

Would've been so awesome if you'd tabbed the lead parts. Regardless, still a great tab.

guest
You may want to rate the tab now too:
select rating
Wanna post a correction for this tab? Suggest correction