Oops, an error
Loading. Please wait.

The Funeral bass

version 1
version 1

Whole song

Interactive

80 views 1 this week
no commentswrite comment
1 2 3 4 5
3 more votes to show rating
add to favorites
×
Save as Personal and add changes to this tab that will be seen only by you. Learn more ›
×
You can save this tab as Personal to edit and correct it or add notes. All changes will be seen only by you. Learn more »
launch autoscroll
font size
0
reset
guitar tuner
edit
Autoscroll
slow
fast
+/-
esc
set tempo
stop
                                  The Funeral                                   

Transcribed by an unregistered user

                                                                      Iced Earth
Dave



      H        E     H        E     H        E     H        E     H.            
F#||--------------|--------------|--------------|--------------|---------------|
C#||--------------|--------------|--------------|--------------|---------------|
G#||--------------|--------------|--------------|--------------|---------------|
D#||--0--------L--|--0--------L--|--0--------L--|--0--------L--|--3------------|


  H.              H.              H.              H        E     H        E   
---------------|---------------|---------------|--------------|--------------|
---------------|---------------|---------------|--------------|--------------|
---------------|---------------|---------------|--------------|--------------|
--3------------|--3------------|--3------------|--0--------L--|--0--------L--|


  H        E     H        E     H.              H.              H.            
--------------|--------------|---------------|---------------|---------------|
--------------|--------------|---------------|---------------|---------------|
--------------|--------------|---------------|---------------|---------------|
--0--------L--|--0--------L--|--3------------|--3------------|--3------------|


  H.              H        E     H        E     H        E     H        E   
---------------|--------------|--------------|--------------|--------------|
---------------|--------------|--------------|--------------|--------------|
---------------|--------------|--------------|--------------|--------------|
--3------------|--0--------L--|--0--------L--|--0--------L--|--0--------L--|


  W.                  H.              Q.     E.  E.     H.            
-------------------|---------------|-----------------|---------------|
-------------------|---------------|-----------------|---------------|
-------------------|---------------|-----------------|---------------|
--0----------------|--5------------|--5------5---8---|--0------------|


  Q.     E.  E.     H.              Q.     E.  E.     H.            
-----------------|---------------|-----------------|---------------|
-----------------|---------------|-----------------|---------------|
-----------------|---------------|-----------------|---------------|
--0------0---3---|--5------------|--5------5---8---|--0------------|


  Q.     E.  E.     E.  S T T S E.  S T T S    E.  S T T S E.  E.   
-----------------|--------------------------|----------------------|
-----------------|--------------------------|----------------------|
-----------------|--------------------------|----------------------|
--0------0---3---|--5---5-5-5-5-5---5-5-5-5-|--5---5-5-5-5-5---8---|


  E.  S T T S E.  S T T S    E.  S T T S E.  E.     E.  S T T S E.  S T T S  
--------------------------|----------------------|--------------------------|
--------------------------|----------------------|--------------------------|
--------------------------|----------------------|--------------------------|
--0---0-0-0-0-0---0-0-0-0-|--0---0-0-0-0-0---3---|--5---5-5-5-5-5---5-5-5-5-|


  E.  S T T S E.  E.     E.  S T T S E.  S T T S    E.  S T T S E.  E.   
----------------------|--------------------------|----------------------|
----------------------|--------------------------|----------------------|
----------------------|--------------------------|----------------------|
--5---5-5-5-5-5---8---|--0---0-0-0-0-0---0-0-0-0-|--0---0-0-0-0-0---3---|


  W                   W                 
-------------------|-------------------|
-------------------|-------------------|
-------------------|-------------------|
--0----------------|-------------------|


  S T T S T T S T T S S S T T S T T S S S S  
--------------------------------------------|
--------------------------------------------|
--------------------------------------3---2-|
--0-0-0-0-0-0-0-0-0-0-3-0-0-0-0-0-0-1---1---|


  S T T S T T S T T S S S T T S T T S S S S  
--------------------------------------------|
--------------------------------------------|
--------------------------------------3---2-|
--0-0-0-0-0-0-0-0-0-0-3-0-0-0-0-0-0-1---1---|


  S T T S T T S T T S S S T T S T T S S S S  
--------------------------------------------|
--------------------------------------------|
--------------------------------------3---2-|
--0-0-0-0-0-0-0-0-0-0-3-0-0-0-0-0-0-1---1---|


  S T T S T T S T T S S S T T S T T S S S S  
--------------------------------------------|
--------------------------------------------|
--------------------------------------3---2-|
--0-0-0-0-0-0-0-0-0-0-3-0-0-0-0-0-0-1---1---|


  S T T S T T S T T S S S T T S T T S S S S  
--------------------------------------------|
--------------------------------------------|
--------------------------------------3---2-|
--0-0-0-0-0-0-0-0-0-0-3-0-0-0-0-0-0-1---1---|


  S T T S T T S T T S S S T T S T T S S S S  
--------------------------------------------|
--------------------------------------------|
--------------------------------------3---2-|
--0-0-0-0-0-0-0-0-0-0-3-0-0-0-0-0-0-1---1---|


  S T T S T T S T T S S S T T S T T S S S S  
--------------------------------------------|
--------------------------------------------|
--------------------------------------3---2-|
--0-0-0-0-0-0-0-0-0-0-3-0-0-0-0-0-0-1---1---|


  S T T S T T S T T S S S T T S T T S S S S  
--------------------------------------------|
--------------------------------------------|
--------------------------------------3---2-|
--0-0-0-0-0-0-0-0-0-0-3-0-0-0-0-0-0-1---1---|


  S T T S T T S T T S S S T T S T T S S S S  
--------------------------------------------|
--------------------------------------------|
--------------------------------------3---2-|
--0-0-0-0-0-0-0-0-0-0-3-0-0-0-0-0-0-1---1---|


  S T T S T T S T T S S S T T S T T S S S S  
--------------------------------------------|
--------------------------------------------|
--------------------------------------3---2-|
--0-0-0-0-0-0-0-0-0-0-3-0-0-0-0-0-0-1---1---|


  S T T S T T S T T S S S T T S T T S S S S  
--------------------------------------------|
--------------------------------------------|
--------------------------------------3---2-|
--0-0-0-0-0-0-0-0-0-0-3-0-0-0-0-0-0-1---1---|


  S T T S T T S T T S S S T T S T T S S S S  
--------------------------------------------|
--------------------------------------------|
--------------------------------------3---2-|
--0-0-0-0-0-0-0-0-0-0-3-0-0-0-0-0-0-1---1---|


  S T T S T T S T T S S S T T S T T S S S S  
--------------------------------------------|
--------------------------------------------|
--------------------------------------3---2-|
--0-0-0-0-0-0-0-0-0-0-3-0-0-0-0-0-0-1---1---|


  S T T S T T S T T S S S T T S T T S S S S  
--------------------------------------------|
--------------------------------------------|
--------------------------------------3---2-|
--0-0-0-0-0-0-0-0-0-0-3-0-0-0-0-0-0-1---1---|


  S T T S T T S T T S S S T T S T T S S S S  
--------------------------------------------|
--------------------------------------------|
--------------------------------------3---2-|
--0-0-0-0-0-0-0-0-0-0-3-0-0-0-0-0-0-1---1---|


  S T T S T T S T T S S S T T S T T S S S S  
--------------------------------------------|
--------------------------------------------|
--------------------------------------3---2-|
--0-0-0-0-0-0-0-0-0-0-3-0-0-0-0-0-0-1---1---|


  S T T S T T S T T S S S T T S T T S S S S  
--------------------------------------------|
--------------------------------------------|
--------------------------------------3---2-|
--0-0-0-0-0-0-0-0-0-0-3-0-0-0-0-0-0-1---1---|


  S T T S T T S T T S S S T T S T T S S S S  
--------------------------------------------|
--------------------------------------------|
--------------------------------------3---2-|
--0-0-0-0-0-0-0-0-0-0-3-0-0-0-0-0-0-1---1---|


  S T T S T T S T T S S S T T S T T S S S S  
--------------------------------------------|
--------------------------------------------|
--------------------------------------3---2-|
--0-0-0-0-0-0-0-0-0-0-3-0-0-0-0-0-0-1---1---|


  S T T S T T S T T S S S T T S T T S S S S  
--------------------------------------------|
--------------------------------------------|
--------------------------------------3---2-|
--0-0-0-0-0-0-0-0-0-0-3-0-0-0-0-0-0-1---1---|


  S T T S T T S T T S S S T T S T T S S S S  
--------------------------------------------|
--------------------------------------------|
--------------------------------------3---2-|
--0-0-0-0-0-0-0-0-0-0-3-0-0-0-0-0-0-1---1---|


  S T T S T T S T T S S S T T S T T S S S S  
--------------------------------------------|
--------------------------------------------|
--------------------------------------3---2-|
--0-0-0-0-0-0-0-0-0-0-3-0-0-0-0-0-0-1---1---|


  S T T S T T S T T S S S T T S T T S S S S  
--------------------------------------------|
--------------------------------------------|
--------------------------------------3---2-|
--0-0-0-0-0-0-0-0-0-0-3-0-0-0-0-0-0-1---1---|


  S T T S T T S T T S S S T T S T T S S S S    W                 
--------------------------------------------|-------------------|
--------------------------------------------|-------------------|
--------------------------------------3---2-|-------------------|
--0-0-0-0-0-0-0-0-0-0-3-0-0-0-0-0-0-1---1---|--0----------------|


  H        H           H        E   E  E  S S    Q.     S T  T E.   E  E  S  
--------------------|-------------------------|-----------9-11-9---11--9--7-|
--------------------|-----------9------7------|-----------------------------|
--------------------|--------------10-----5---|-----------------------------|
--L-----------------|-------------------------|--0------L-------------------|


  S  S  S S Q    E   E  E  S S    E  S E   E  S E  S  E   S S S  
--9-12-------------------------|--------------------------------|
-------12-9-L----9------7------|-----9-8-----------9-10---------|
--------------------10-----5---|--7-------10--8-7--------10---8-|
-------------------------------|--------------------------------|


  E  S E   E  S E  S  E   S S S    E  S E   E  S E  S  E   S S S  
--------------------------------|--------------------------------|
-----9-8-----------9-10---------|-----9-8-----------9-10---------|
--7-------10--8-7--------10---8-|--7-------10--8-7--------10---8-|
--------------------------------|--------------------------------|


  E  S E   E  S E  S  E   S S S    E  S E   E  S E  S  E   S S S  
--------------------------------|--------------------------------|
-----9-8-----------9-10---------|-----9-8-----------9-10---------|
--7-------10--8-7--------10---8-|--7-------10--8-7--------10---8-|
--------------------------------|--------------------------------|


  E  S E   E  S E  S  E   S S S    E  S E   E  S E  S  E   S S S  
--------------------------------|--------------------------------|
-----9-8-----------9-10---------|-----9-8-----------9-10---------|
--7-------10--8-7--------10---8-|--7-------10--8-7--------10---8-|
--------------------------------|--------------------------------|


  E  S E   E  S E  S  E   S S S    Q.     S S Q.     S S  
--------------------------------|------------------------|
-----9-8-----------9-10---------|------------------------|
--7-------10--8-7--------10---8-|------------------------|
--------------------------------|--0------0-0-1------1-1-|


  Q.     S S S S S S S S S S    Q.     S S S S  S S S S S S  
-----------------------------|---------------9--------------|
-----------------------------|-----------------10-9-7-3---3-|
-----------------------------|------------------------------|
--0------0-0-3-3-3-3-5-5-5-5-|--0------0-0-1----------------|


  Q.     S S S S S S S S S S    Q.     S S E  S S S S E    
-----------------------------|----------------------------|
-----------------------------|----------------------------|
-----------------------3-0---|-------------0--------------|
--0------0-0-3-3-3-3-1-----1-|--0------2-3----3-2-0-2-3S--|


  E  S E.  S T T S T T S S T T S E      Q.     S S E  S S S S E    
-------------------------------------|----------------------------|
-------------------------------------|----------------------------|
--7--7-------------------5-5-5-5-6S--|-------------0--------------|
-------6---6-6-6-7-7-7-7-------------|--0------2-3----3-2-0-2-3S--|


  E  S E.  S T T S T T S S T T S E      S E.  H.              W                 
-------------------------------------|---------------------|-------------------|
-------------------------------------|---------------------|-------------------|
--7--7-------------------5-5-5-5-6S--|---------------------|-------------------|
-------6---6-6-6-7-7-7-7-------------|--3-5----------------|-------------------|


  H        H           H        H           Q.     S S E.  T T S S S S  
--------------------|--------------------|-----------------------------|
--7--------5--------|-----------2--------|-----------------------------|
--------------------|--------------------|-----------------------------|
--5--------3--------|--3--------0--------|--5------L-5-3---3-3-3-0---0-|


  E.  T T S S S S Q    S S S S    E.  S E.  S E.  T T S E  S  
-------------------------------|-----------------------------|
-------------------------------|------------------------5----|
-------------------------------|----------------------5----5-|
--3---3-3-3-3---3-0----L-0-1-3-|--5---5-5---5-3---3-3--------|


  E.  T T S S S S E.  S  S S S S    Q.     S S Q.     S S  
---------------------------------|------------------------|
----------------------2S-3-2---0-|------------------------|
-----------------------------3---|------------------------|
--3---3-3-3-3---3-0--------------|--5------5-5-3------3-0-|


  Q.     S S Q    S S S S    Q.     S S Q.     S S  
--------------------------|------------------------|
--------------------------|------------------------|
--3------3-0-5----0-5---5-|------------------------|
--------------------------|--5------5-5-3------3-0-|


  Q.     S S Q      S  S S  S    Q.     S S Q.     S S  
------------------------------|------------------------|
------------------------------|------------------------|
--3------3-0-5S----12------12-|------------------------|
----------------------10------|--5------5-5-3------3-0-|


  Q    S E  S Q    S S S S    Q.     S S Q.     S S  
---------5-----------------|------------------------|
-------5-------------------|------------------------|
--3---------0-5----0-5---5-|------------------------|
---------------------------|--5------5-5-3------3-0-|


  S S S S S S S S H           E  S T T S T T S E.  S T T S T T S S  
---------------------------|---------------------------------------|
---------------------------|---------------------------------------|
--3-3-3-3-3-3-3-3-5--------|---------------------------------------|
---------------------------|--5--5-5-5-5-5-5-5-3---3-3-3-3-3-3-3-0-|


  E  S T T S T T S E.  S T T S T T S S    E  S T T S T T S E.  S T T S T T S S  
---------------------------------------|---------------------------------------|
---------------------------------------|---------------------------------------|
--3--3-3-3-3-3-3-0-5---5-5-5-5-5-5-5-0-|---------------------------------------|
---------------------------------------|--5--5-5-5-5-5-5-5-3---3-3-3-3-3-3-3-0-|


  E  S T T S T T S E.  S T T S T T S S    E  S T T S T T S E.  S T T S T T S S  
---------------------------------------|---------------------------------------|
---------------------------------------|---------------------------------------|
--3--3-3-3-3-3-3-0-5---5-5-5-5-5-5-5-0-|---------------------------------------|
---------------------------------------|--5--5-5-5-5-5-5-5-3---3-3-3-3-3-3-3-0-|


  E  S T T S T T S E.  S T T S T T S S    E  S T T S T T S E.  S T T S T T S S  
---------------------------------------|---------------------------------------|
---------------------------------------|---------------------------------------|
--3--3-3-3-3-3-3-0-5---5-5-5-5-5-5-5-0-|---------------------------------------|
---------------------------------------|--5--5-5-5-5-5-5-5-3---3-3-3-3-3-3-3-0-|


  E  S T T S T T S E.  S T T S T T S S  
---------------------------------------|
---------------------------------------|
--3--3-3-3-3-3-3-0-5---5-5-5-5-5-5-5-0-|
---------------------------------------|


  S  S S T T S S S S S  S S T T S S S S  
----------------------------------------|
--5h-7---------------5h-7---------------|
-------0-0-0-0-0-0-0------0-0-0-0-0-0-0-|
----------------------------------------|


  S  S S T T S S S S S  S S T T S S S S    Q    S S S S Q.     E   
----------------------------------------|-------------------------|
--5h-7---------------5h-7---------------|-------------------------|
-------0-0-0-0-0-0-0------0-0-0-0-0-0-0-|-------------------------|
----------------------------------------|--5----L-5-6-5-3------3--|


  Q    S S S S H           Q    S S S S Q.     E     Q    S S S S H         
------------------------|-------------------------|------------------------|
------------------------|-------------------------|------------------------|
------------------------|-------------------------|------------------------|
--6----L-6-8-6-5--------|--5----L-5-6-5-3------3--|--6----L-6-8-6-5--------|


  E  S T T S T T S S E  S T T S T T S S  
----------------------------------------|
----------------------------------------|
--5--5-5-5-5-5-5-7-5-3--3-3-3-3-3-3-3-0-|
----------------------------------------|


  E  S T T S T T S S E  S T T S T T S S  
----------------------------------------|
--3--3-3-3-3-3-3-5-3-2--2-2-2-2-2-2-2---|
--------------------------------------3-|
----------------------------------------|


  E  S T T S T T S S E  S T T S T T S S  
----------------------------------------|
----------------------------------------|
--5--5-5-5-5-5-5-7-5-3--3-3-3-3-3-3-3-0-|
----------------------------------------|


  E  S T T S T T S S E  S T T S T T S S  
----------------------------------------|
--3--3-3-3-3-3-3-5-3-2--2-2-2-2-2-2-2---|
--------------------------------------3-|
----------------------------------------|


  S T T S T T S T T S S S T T S T T S T T S T T  
------------------------------------------------|
------------------------------------------------|
------------------------------------------------|
--5-5-5-5-5-5-5-5-5-6-5-3-3-3-3-3-3-3-3-3-3-3-3-|


  S T T S T T S T T S S S T T S T T S T T S S  
----------------------------------------------|
----------------------------------------------|
----------------------------------------------|
--5-6-6-6-6-6-6-6-6-8-6-5-5-5-5-5-5-5-5-5-5-3-|


  S T T S T T S T T S S S T T S T T S T T S T T  
------------------------------------------------|
------------------------------------------------|
------------------------------------------------|
--5-5-5-5-5-5-5-5-5-6-5-3-3-3-3-3-3-3-3-3-3-3-3-|


  S T T S T T S T T S S S T T S T T S T T S S  
----------------------------------------------|
----------------------------------------------|
----------------------------------------------|
--5-6-6-6-6-6-6-6-6-8-6-5-5-5-5-5-5-5-5-5-5-3-|


  E  S T T S T T S S E  S T T S T T S S  
----------------------------------------|
----------------------------------------|
--5--5-5-5-5-5-5-7-5-3--3-3-3-3-3-3-3-0-|
----------------------------------------|


  E  S T T S T T S S E  S T T S T T S S  
----------------------------------------|
--3--3-3-3-3-3-3-5-3-2--2-2-2-2-2-2-2---|
--------------------------------------3-|
----------------------------------------|


  E  S T T S T T S S E  S T T S T T S S  
----------------------------------------|
----------------------------------------|
--5--5-5-5-5-5-5-7-5-3--3-3-3-3-3-3-3-0-|
----------------------------------------|


  E  S T T S T T S S E  S T T S T T S S  
----------------------------------------|
--3--3-3-3-3-3-3-5-3-2--2-2-2-2-2-2-2---|
--------------------------------------3-|
----------------------------------------|


  S T T S S T T S S T T S S T T S S S S S  
------------------------------------------|
------------------------------------------|
------------------------------------------|
--5-5-5-5-6-5-5-5-5-5-5-5-6-5-5-5-5-5-5-5-|


  S T T S S T T S S T T S S T T S S S S S  
------------------------------------------|
------------------------------------------|
------------------------------------------|
--4-4-4-4-5-4-4-4-4-4-4-4-5-4-4-4-4-4-4-4-|


  S T T S S T T S S T T S S T T S S S S S  
------------------------------------------|
------------------------------------------|
------------------------------------------|
--5-5-5-5-6-5-5-5-5-5-5-5-6-5-5-5-5-5-5-5-|


  S T T S S T T S S T T S S T T S S S S S  
------------------------------------------|
------------------------------------------|
------------------------------------------|
--4-4-4-4-5-4-4-4-4-4-4-4-5-4-4-4-4-4-4-4-|


  S T T S S T T S S T T S S T T S S S S S  
------------------------------------------|
------------------------------------------|
------------------------------------------|
--5-5-5-5-6-5-5-5-5-5-5-5-6-5-5-5-5-5-5-5-|


  S T T S S T T S S T T S S T T S S S S S  
------------------------------------------|
------------------------------------------|
------------------------------------------|
--4-4-4-4-5-4-4-4-4-4-4-4-5-4-4-4-4-4-4-4-|


  S T T S S T T S S T T S S T T S S S S S  
------------------------------------------|
------------------------------------------|
------------------------------------------|
--5-5-5-5-6-5-5-5-5-5-5-5-6-5-5-5-5-5-5-5-|


  S T T S S T T S S T T S S T T S S S E    
------------------------------------------|
------------------------------------------|
--------------------------------------4S--|
--4-4-4-4-5-4-4-4-4-4-4-4-5-4-4-4-4-4-----|


  S T T S T T S T T S S S T T S T T S S S S  
--------------------------------------------|
--------------------------------------------|
--------------------------------------3---2-|
--0-0-0-0-0-0-0-0-0-0-3-0-0-0-0-0-0-1---1---|


  S T T S T T S T T S S S T T S T T S S S S  
--------------------------------------------|
--------------------------------------------|
--------------------------------------3---2-|
--0-0-0-0-0-0-0-0-0-0-3-0-0-0-0-0-0-1---1---|


  S T T S T T S T T S S S T T S T T S S S S  
--------------------------------------------|
--------------------------------------------|
--------------------------------------3---2-|
--0-0-0-0-0-0-0-0-0-0-3-0-0-0-0-0-0-1---1---|


  S T T S T T S T T S S S T T S T T S S S S    S Q    S S S S Q    S S S  
--------------------------------------------|----------------------------|
--------------------------------------------|----------------------------|
--------------------------------------3---2-|----------------------------|
--0-0-0-0-0-0-0-0-0-0-3-0-0-0-0-0-0-1---1---|--0------1---1-0------3---1-|


  S Q    S S S S Q    S S S    E  E  H.              W                  
----------------------------|---------------------|-------------------||
----------------------------|---------------------|-------------------||
----------------------------|---------------------|-------------------||
--0------1---1-0------3---1-|--0------------------|-------------------||




Duration Legend
---------------
W - whole
H - half
Q - quarter
E - 8th
S - 16th
T - 32nd
X - 64th
. - note dotted
|-n-|  - n-tuplets


Tablature Legend
----------------
L - tied note
x - dead note
g - grace note
(n) - ghost note
> - accentuded note
NH - natural harmonic
AH - artificial harmonic
TH - tapped harmonic
SH - semi harmonic
PH - pitch harmonic
h - hammer on
p - pull off
b - bend
br - bendRelease
pb - preBend
pbr - preBendRelease
brb - bendReleaseBend
\n/ - tremolo bar dip
\n - tremolo bar dive
-/n - tremolo bar Release up
/n\ - tremolo bar inverted dip
/n - tremolo bar return
-\n - tremolo bar Release down
S - shift slide
s - legato slide
/ -  slide into from below or out of upwards
\ -  slide into from above or out of downwards
~ - vibrato
W - wide vibrato
tr - trill
TP - tremolo picking
T - tapping
S - slap
P - pop
< - fade in
^ - brush up
v - brush down

            
            
Suggest correction
Creating personal tab
Creating personal tab
You can edit any tab online and save it as your Personal.

You can edit, replace or remove any tab part or add personal notes – all changes will be seen only by you.

Personal tabs can be accessed anytime from any device, even offline.
Learn more »
Give kudos to tab author, rate the tab!
1 2 3 4 5
comments
print report bad tab
guest
You may want to rate the tab now too:
select rating
Wanna post a correction for this tab? Suggest correction