Oops, an error
Loading. Please wait.

The Hunter tab

version 2
version 2

Whole song

Interactive

630 views 1 this week
no commentswrite comment
1 2 3 4 5
3 more votes to show rating
add to favorites
×
Save as Personal and add changes to this tab that will be seen only by you. Learn more ›
×
You can save this tab as Personal to edit and correct it or add notes. All changes will be seen only by you. Learn more »
launch autoscroll
font size
0
reset
how to read this tab
guitar tuner
edit
Autoscroll
slow
fast
+/-
esc
set tempo
stop
Author
Difficulty
ICED EARTH
The hunter 




      Clean guitar                                                       
D#||----------|-----------------------|---------------------|
A#||----------|-----------------------|---------------------|
F#||----------|-----------------------|---------------------|
C#||----------|----2--3--2---------3--|--2--3--2------------|
G#||----------|---------------5-------|---------------------|
D#||----------|-----------------------|---------------------|


                                                                      
-----------------------|---------------------|-----------------------|
-----------------------|---------------------|-----------------------|
-----------------------|---------------------|-----------------------|
----2--3--2---------3--|--2--3--2------------|----2--3--2---------3--|
---------------5-------|---------------------|---------------5-------|
-----------------------|---------------------|-----------------------|


                                                                    
---------------------|-----------------------|---------------------|
---------------------|-----------------------|---------------------|
---------------------|-----------------------|---------------------|
--2--3--2------------|----2--3--2---------3--|--2--3--2------------|
---------------------|---------------5-------|---------------------|
---------------------|-----------------------|---------------------|


                                                     2x                      
--------------------------|--------------------------|
--------8-----------------|--------6-----------------|
-----7-----7-----7-----7--|-----5-----5-----5-----5--|
--5-----------5-----5-----|--3-----------3-----3-----|
--------------------------|--------------------------|
--------------------------|--------------------------|


Distortion guitar
-----------------------------|-----------------------------|
-----------------------------|-----------------------------|
-----------------------------|-----------------------------|
---------5--5------4------4--|---------5--5------2------2--|
--7------7--7------5------5--|--7------7--7------3------3--|
--0--0-0-------0-0----0-0----|--0--0-0-------0-0----0-0----|


                                                            
-----------------------------|-----------------------------|
-----------------------------|-----------------------------|
-----------------------------|-----------------------------|
---------5--5------4------4--|--2------2------2------2/-4--|
--7------7--7------5------5--|--3--3-3-3--3-3-3--3-3-3/-5--|
--0--0-0-------0-0----0-0----|-----------------------------|


                                                            
-----------------------------|-----------------------------|
-----------------------------|-----------------------------|
-----------------------------|-----------------------------|
---------5--5------4------4--|---------5--5------2------2--|
--7------7--7------5------5--|--7------7--7------3------3--|
--0--0-0-------0-0----0-0----|--0--0-0-------0-0----0-0----|


                                                            
-----------------------------|-----------------------------|
-----------------------------|-----------------------------|
-----------------------------|-----------------------------|
---------5--5------4------4--|--2------2------2------2/-4--|
--7------7--7------5------5--|--3--3-3-3--3-3-3--3-3-3/-5--|
--0--0-0-------0-0----0-0----|-----------------------------|


                                                                          
|-------------------------|---------------------|------------------------|
|-------------------------|---------------------|------------------------|
|*-------7----------------|---------------------|------------------------|
|*----------10----9----7--|--7h-9--9~-----------|-------9--7-------------|
|-----7-------------------|---------------------|----7----------10----9--|
|-------------------------|---------------------|------------------------|


                                                        
----------------------||-------------------------------|
----------------------||-------------------------------|
---------------------*||*------------------------------|
---------------------*||*--2------2----------2------3--|
--9p-7--7-------------||---2------2----------2------3--|
----------------------||---0--0-0-0--0-0-0-0-0--0-0-1--|


                               4x                          
-------------------------------||-------------------------|
-------------------------------||-------------------------|
------------------------------*||*-------7----------------|
--2------2----------2------3--*||*----------10----9----7--|
--2------2----------2------3---||-----7-------------------|
--0--0-0-0--0-0-0-0-0--0-0-1---||-------------------------|


                                                                       
---------------------|------------------------|----------------------||
---------------------|------------------------|----------------------||
---------------------|------------------------|---------------------*||
--7h-9--9~-----------|-------9--7-------------|---------------------*||
---------------------|----7----------10----9--|--9p-7--7-------------||
---------------------|------------------------|----------------------||


                                                               4x
-------------------------------|-------------------------------||
-------------------------------|-------------------------------||
*------------------------------|------------------------------*||
*--2------2----------2------3--|--2------2----------2------3--*||
---2------2----------2------3--|--2------2----------2------3---||
---0--0-0-0--0-0-0-0-0--0-0-1--|--0--0-0-0--0-0-0-0-0--0-0-1---||


                                                                         
-------------------------|---------------------|------------------------|
-------------------------|---------------------|------------------------|
*-------7----------------|---------------------|------------------------|
*----------10----9----7--|--7h-9--9~-----------|-------9--7-------------|
-----7-------------------|---------------------|----7----------10----9--|
-------------------------|---------------------|------------------------|


                      3x                                               
----------------------||--------------------|------------------------||
----------------------||--------------------|------------------------||
---------------------*||*-------------------|-----------------------*||
---------------------*||*--2----------------|----------2------3--3--*||
--9p-7--7-------------||---2----------------|----------2------3--3---||
----------------------||---0----------------|----------0--0-0-1--1---||


                                                               
--------------------------------|----------------------------||
--------------------------------|----------------------------||
*-------------------------------|---------------------------*||
*--2------10--9------7------10--|--9--10--9----2------3--3--*||
---2------8---7------5------8---|--7--8---7----2------3--3---||
---0--0-0--------0-0----0-0-----|--------------0--0-0-1--1---||


                                                  
------------------------|------------------------|
--13b---------17~-------|--12b---------16~-------|
--17b-----17b-----------|--16b-----16b-----------|
------------------------|------------------------|
------------------------|------------------------|
------------------------|------------------------|


                                                                
|--------------------------------|----------------------------||
|--------------------------------|----------------------------||
|*-------------------------------|---------------------------*||
|*--2------10--9------7------10--|--9--10--9----2------3--3--*||
|---2------8---7------5------8---|--7--8---7----2------3--3---||
|---0--0-0--------0-0----0-0-----|--------------0--0-0-1--1---||


                                                                             
------------------------|------------------------|--12----12------------12--|
--13b---------17~-------|--12b---------16~-------|--15b---15b-----15b---15b-|
--17b-----17b-----------|--16b-----16b-----------|--------------------------|
------------------------|------------------------|--------------------------|
------------------------|------------------------|--------------------------|
------------------------|------------------------|--------------------------|


                                                        
--12----12------------||-------------------------------|
--15b---15b-----------||-------------------------------|
----------------------||*------------------------------|
----------------------||*--2------2----------2------3--|
----------------------||---2------2----------2------3--|
----------------------||---0--0-0-0--0-0-0-0-0--0-0-1--|


                               3x                          
-------------------------------||-------------------------|
-------------------------------||-------------------------|
------------------------------*||*-------7----------------|
--2------2----------2------3--*||*----------10----9----7--|
--2------2----------2------3---||-----7-------------------|
--0--0-0-0--0-0-0-0-0--0-0-1---||-------------------------|


                                                                     3x
---------------------|------------------------|----------------------||
---------------------|------------------------|----------------------||
---------------------|------------------------|---------------------*||
--7h-9--9~-----------|-------9--7-------------|---------------------*||
---------------------|----7----------10----9--|--9p-7--7-------------||
---------------------|------------------------|----------------------||


                                                              
------------------------------|------------------------------|
------------------------------|------------------------------|
------------------------------|------------------------------|
--2------2----------2------3--|--2------2----------2------3--|
--2------2----------2------3--|--2------2----------2------3--|
--0--0-0-0--0-0-0-0-0--0-0-1--|--0--0-0-0--0-0-0-0-0--0-0-1--|


                                                      
------------------------------|--------------|------||
------------------------------|--------------|------||
------------------------------|--------------|------||
--2------2----------2------3--|--2------2----|------||
--2------2----------2------3--|--2------2----|------||
--0--0-0-0--0-0-0-0-0--0-0-1--|--0--0-0-0----|------||


                                                                    

Tabbed by Ed_Hunter

            
            
Suggest correction
Creating personal tab
Creating personal tab
You can edit any tab online and save it as your Personal.

You can edit, replace or remove any tab part or add personal notes – all changes will be seen only by you.

Personal tabs can be accessed anytime from any device, even offline.
Learn more »
Give kudos to tab author, rate the tab!
1 2 3 4 5
comments
print report bad tab
guest
You may want to rate the tab now too:
select rating
Wanna post a correction for this tab? Suggest correction