Oops, an error
Loading. Please wait.

The Reckoning bass

version 1
version 1

Whole song

Interactive

264 views 1 this week
no commentswrite comment
1 2 3 4 5
3 more votes to show rating
add to favorites
×
Save as Personal and add changes to this tab that will be seen only by you. Learn more ›
×
You can save this tab as Personal to edit and correct it or add notes. All changes will be seen only by you. Learn more »
launch autoscroll
font size
0
reset
guitar tuner
edit
Autoscroll
slow
fast
+/-
esc
set tempo
stop
                                The Reckoning                                   

Transcribed by an unregistered user

                                                                      Iced Earth
Bass



      W                   W                   W                 
F#||-------------------|-------------------|-------------------|
C#||-------------------|-------------------|-------------------|
G#||-------------------|-------------------|-------------------|
D#||-------------------|-------------------|-------------------|
A#||-------------------|-------------------|-------------------|


  W                   W                   W                   W                 
-------------------|-------------------|-------------------|-------------------|
-------------------|-------------------|-------------------|-------------------|
-------------------|-------------------|-------------------|-------------------|
-------------------|-------------------|-------------------|-------------------|
-------------------|-------------------|-------------------|-------------------|


  W                     E  S S E  E  S S E  S S E   
-------------------||------------------------------|
-------------------||*-----------------------------|
-------------------||------------------------------|
-------------------||*----------------------7-7-7--|
-------------------||---5--5-5-5--5--5-5-5---------|


  E  S S E  E  S S E  S S E     E  S S E  E  S S E  S S E   
-----------------------------|-----------------------------|
-----------------------------|-----------------------------|
-----------------------------|-----------------------------|
----------------------8-8-8--|----------------------7-7-7--|
--5--5-5-5--5--5-5-5---------|--5--5-5-5--5--5-5-5---------|


  S S E  S S E  S S E  Q       E  S S E  E  S S E  S S E   
----------------------------|-----------------------------|
----------------------------|-----------------------------|
----------------------------|-----------------------------|
--5-5-5----------------7----|----------------------7-7-7--|
---------8-8-8--7-7-7-------|--5--5-5-5--5--5-5-5---------|


  E  S S E  E  S S E  S S E     E  S S E  E  S S E  S S E   
-----------------------------|-----------------------------|
-----------------------------|-----------------------------|
-----------------------------|-----------------------------|
----------------------8-8-8--|----------------------7-7-7--|
--5--5-5-5--5--5-5-5---------|--5--5-5-5--5--5-5-5---------|


                                  |--3--|     |--3--|            
  S S E  S S E  S S E  Q          E  E  E  E  E  E  E  E  E  E   
-----------------------------||---------------------------------|
----------------------------*||*--------------------------------|
-----------------------------||---------------------------------|
--5-5-5----------------7----*||*--------------------------------|
---------8-8-8--7-7-7--------||---3--4--5-----3--4--5--6--6--6--|


  |--3--|     |--3--|              |--3--|     |--3--|            
  E  E  E  E  E  E  E  E  E  E     E  E  E  E  E  E  E  E  E  E   
--------------------------------|--------------------------------|
--------------------------------|--------------------------------|
--------------------------------|--------------------------------|
--------------------------------|--------------------------------|
--3--4--5-----3--4--5--6--6--6--|--3--4--5-----3--4--5--6--6--6--|


  Q.     Q.     Q         E  S S S S E  S S S S E  S S  
----------------------||-------------------------------|
---------------------*||-------------------------------|
----------------------||-------------------------------|
---------------------*||-------------------------------|
--6------5------3-----||--3--5-5-5-5-5--5-5-5-5-5--5-5-|


  E  S S S S E  S S S S E  S S    E  S S S S E  S S S S E  S S  
-------------------------------|-------------------------------|
-------------------------------|-------------------------------|
-------------------------------|-------------------------------|
--3----------------------------|-------------------------------|
-----5-5-5-5-5--5-5-5-5-5--5-5-|--3--5-5-5-5-5--5-5-5-5-5--5-5-|


  E  S S E  E  E  E  Q       E  S S S S E  S S S S E  S S  
--------------------------|-------------------------------|
--------------------------|-------------------------------|
--------------------------|-------------------------------|
--3---------5--5--5--3----|-------------------------------|
-----5-5-5----------------|--3--5-5-5-5-5--5-5-5-5-5--5-5-|


  E  S S S S E  S S S S E  S S    E  S S S S E  S S S S E  S S  
-------------------------------|-------------------------------|
-------------------------------|-------------------------------|
-------------------------------|-------------------------------|
--3----------------------------|--3----------------------------|
-----5-5-5-5-5--5-5-5-5-5--5-5-|-----5-5-5-5-5--5-5-5-5-5--5-5-|


  E  S S E  E  E  E  Q       E  S S S S E  S S S S E  S S  
--------------------------|-------------------------------|
--------------------------|-------------------------------|
--------------------------|-------------------------------|
--3---------5--5--5--3----|-------------------------------|
-----5-5-5----------------|--3--5-5-5-5-5--5-5-5-5-5--5-5-|


  E  S S S S E  S S S S E  S S    E  S S S S E  S S S S E  S S  
-------------------------------|-------------------------------|
-------------------------------|-------------------------------|
-------------------------------|-------------------------------|
--3----------------------------|--3----------------------------|
-----5-5-5-5-5--5-5-5-5-5--5-5-|-----5-5-5-5-5--5-5-5-5-5--5-5-|


  E  S S E  E  E  E  Q       E  S S S S E  S S S S E  S S  
--------------------------|-------------------------------|
--------------------------|-------------------------------|
--------------------------|-------------------------------|
--3---------5--5--5--3----|-------------------------------|
-----5-5-5----------------|--3--5-5-5-5-5--5-5-5-5-5--5-5-|


  E  S S S S E  S S S S E  S S    E  S S S S E  S S S S E  S S  
-------------------------------|-------------------------------|
-------------------------------|-------------------------------|
-------------------------------|-------------------------------|
--3----------------------------|--3----------------------------|
-----5-5-5-5-5--5-5-5-5-5--5-5-|-----5-5-5-5-5--5-5-5-5-5--5-5-|


                               |--3--|     |--3--|            
  E  S S E  E  E  E  Q         E  E  E  E  E  E  E  E  E  E   
--------------------------||---------------------------------|
--------------------------||*--------------------------------|
--------------------------||---------------------------------|
--3---------5--5--5--3----||*--------------------------------|
-----5-5-5----------------||---3--4--5-----3--4--5--6--6--6--|


  |--3--|     |--3--|              |--3--|     |--3--|            
  E  E  E  E  E  E  E  E  E  E     E  E  E  E  E  E  E  E  E  E   
--------------------------------|--------------------------------|
--------------------------------|--------------------------------|
--------------------------------|--------------------------------|
--------------------------------|--------------------------------|
--3--4--5-----3--4--5--6--6--6--|--3--4--5-----3--4--5--6--6--6--|


  Q.     Q.     Q     4x  E  S S E  E  S S E  S S E   
----------------------||-----------------------------|
---------------------*||-----------------------------|
----------------------||-----------------------------|
---------------------*||----------------------7-7-7--|
--6------5------3-----||--5--5-5-5--5--5-5-5---------|


  E  S S E  E  S S E  S S E     E  S S E  E  S S E  S S E   
-----------------------------|-----------------------------|
-----------------------------|-----------------------------|
-----------------------------|-----------------------------|
----------------------8-8-8--|----------------------7-7-7--|
--5--5-5-5--5--5-5-5---------|--5--5-5-5--5--5-5-5---------|


  S S E  S S E  S S E  Q       E  S S E  E  S S E  S S E   
----------------------------|-----------------------------|
----------------------------|-----------------------------|
----------------------------|-----------------------------|
--5-5-5----------------7----|----------------------7-7-7--|
---------8-8-8--7-7-7-------|--5--5-5-5--5--5-5-5---------|


  E  S S E  E  S S E  S S E     E  S S E  E  S S E  S S E   
-----------------------------|-----------------------------|
-----------------------------|-----------------------------|
-----------------------------|-----------------------------|
----------------------8-8-8--|----------------------7-7-7--|
--5--5-5-5--5--5-5-5---------|--5--5-5-5--5--5-5-5---------|


                                 |--3--|     |--3--|            
  S S E  S S E  S S E  Q         E  E  E  E  E  E  E  E  E  E   
----------------------------||---------------------------------|
----------------------------||*--------------------------------|
----------------------------||---------------------------------|
--5-5-5----------------7----||*--------------------------------|
---------8-8-8--7-7-7-------||---3--4--5-----3--4--5--6--6--6--|


  |--3--|     |--3--|              |--3--|     |--3--|            
  E  E  E  E  E  E  E  E  E  E     E  E  E  E  E  E  E  E  E  E   
--------------------------------|--------------------------------|
--------------------------------|--------------------------------|
--------------------------------|--------------------------------|
--------------------------------|--------------------------------|
--3--4--5-----3--4--5--6--6--6--|--3--4--5-----3--4--5--6--6--6--|


  Q.     Q.     Q     4x  E  S S E  E  S S E  S S E   
----------------------||-----------------------------|
---------------------*||-----------------------------|
----------------------||-----------------------------|
---------------------*||----------------------7-7-7--|
--6------5------3-----||--5--5-5-5--5--5-5-5---------|


  E  S S E  E  S S E  S S E     E  S S E  E  S S E  S S E   
-----------------------------|-----------------------------|
-----------------------------|-----------------------------|
-----------------------------|-----------------------------|
----------------------8-8-8--|----------------------7-7-7--|
--5--5-5-5--5--5-5-5---------|--5--5-5-5--5--5-5-5---------|


  S S E  S S E  S S E  Q       E  S S E  E  S S E  S S E   
----------------------------|-----------------------------|
----------------------------|-----------------------------|
----------------------------|-----------------------------|
--5-5-5----------------7----|----------------------7-7-7--|
---------8-8-8--7-7-7-------|--5--5-5-5--5--5-5-5---------|


  E  S S E  E  S S E  S S E     E  S S E  E  S S E  S S E   
-----------------------------|-----------------------------|
-----------------------------|-----------------------------|
-----------------------------|-----------------------------|
----------------------8-8-8--|----------------------7-7-7--|
--5--5-5-5--5--5-5-5---------|--5--5-5-5--5--5-5-5---------|


  S S E  S S E  S S E  Q       E  S S S S E  S S S S E  S S  
----------------------------|-------------------------------|
----------------------------|-------------------------------|
----------------------------|-------------------------------|
--5-5-5----------------7----|-------------------------------|
---------8-8-8--7-7-7-------|--3--5-5-5-5-5--5-5-5-5-5--5-5-|


  E  S S S S E  S S S S E  S S    E  S S S S E  S S S S E  S S  
-------------------------------|-------------------------------|
-------------------------------|-------------------------------|
-------------------------------|-------------------------------|
--3----------------------------|--3----------------------------|
-----5-5-5-5-5--5-5-5-5-5--5-5-|-----5-5-5-5-5--5-5-5-5-5--5-5-|


  E  S S E  E  E  E  Q       E  S S S S E  S S S S E  S S  
--------------------------|-------------------------------|
--------------------------|-------------------------------|
--------------------------|-------------------------------|
--3---------5--5--5--3----|-------------------------------|
-----5-5-5----------------|--3--5-5-5-5-5--5-5-5-5-5--5-5-|


  E  S S S S E  S S S S E  S S    E  S S S S E  S S S S E  S S  
-------------------------------|-------------------------------|
-------------------------------|-------------------------------|
-------------------------------|-------------------------------|
--3----------------------------|--3----------------------------|
-----5-5-5-5-5--5-5-5-5-5--5-5-|-----5-5-5-5-5--5-5-5-5-5--5-5-|


  E  S S E  E  E  E  Q       E  E  H.              W                 
--------------------------|---------------------|-------------------|
--------------------------|---------------------|-------------------|
--------------------------|---------------------|-------------------|
--3---------5--5--5--3----|--0------------------|-------------------|
-----5-5-5----------------|---------------------|-------------------|


  W                   W                   W                   W                 
-------------------|-------------------|-------------------|-------------------|
-------------------|-------------------|-------------------|-------------------|
-------------------|-------------------|-------------------|-------------------|
-------------------|-------------------|-------------------|-------------------|
-------------------|-------------------|-------------------|-------------------|


  W                   W                   W                   W                 
-------------------|-------------------|-------------------|-------------------|
-------------------|-------------------|-------------------|-------------------|
-------------------|-------------------|-------------------|-------------------|
-------------------|-------------------|-------------------|-------------------|
-------------------|-------------------|-------------------|-------------------|


  W                   W                   W                   W                 
-------------------|-------------------|-------------------|-------------------|
-------------------|-------------------|-------------------|-------------------|
-------------------|-------------------|-------------------|-------------------|
-------------------|-------------------|-------------------|-------------------|
-------------------|-------------------|-------------------|-------------------|


  W                   W                   W                 
-------------------|-------------------|-------------------|
-------------------|-------------------|-------------------|
-------------------|-------------------|-------------------|
-------------------|-------------------|-------------------|
-------------------|-------------------|-------------------|


  Q.     Q.     Q         Q.     Q.     Q       Q.     Q.     Q     
---------------------|-----------------------|---------------------|
---------------------|-----------------------|---------------------|
---------2-----------|--2g3------2-----------|---------2-----------|
--0-------------0----|------------------3----|--0-------------0----|
---------------------|-----------------------|---------------------|


    Q.     Q.     Q       Q.       Q.     Q         Q.     Q.     Q     
-----------------------|-----------------------|-----------------------|
-----------------------|-----------------------|-----------------------|
--3g5------3-----------|---------1g2-----------|--2g3------2-----------|
------------------5----|--0---------------0----|------------------3----|
-----------------------|-----------------------|-----------------------|


  H.           Q         Q.     Q.     Q         Q.     Q.     Q     
--------------------|-----------------------||----------------------|
--------------------|-----------------------||*---------------------|
---------------3----|--2g2------------------||----------2-----------|
--5-----------------|-----------3------2----||*--0-------------0----|
--------------------|-----------------------||----------------------|


    Q.     Q.     Q       Q.     Q.     Q         Q.     Q.     Q     
-----------------------|---------------------|-----------------------|
-----------------------|---------------------|-----------------------|
--2g3------2-----------|---------2-----------|--3g5------3-----------|
------------------3----|--0-------------0----|------------------5----|
-----------------------|---------------------|-----------------------|


  Q.       Q.     Q         Q.     Q.     Q       H.           Q     
-----------------------|-----------------------|--------------------|
-----------------------|-----------------------|--------------------|
---------1g2-----------|--2g3------2-----------|---------------3----|
--0---------------0----|------------------3----|--5-----------------|
-----------------------|-----------------------|--------------------|


    Q.     Q.     Q     3x   E  S S S S E  S S S S E  S S  
------------------------||--------------------------------|
-----------------------*||*-------------------------------|
--2g2-------------------||--------------------------------|
-----------3------2----*||*-------------------------------|
------------------------||---3--5-5-5-5-5--5-5-5-5-5--5-5-|


  E  S S S S E  S S S S E  S S    E  S S S S E  S S S S E  S S  
-------------------------------|-------------------------------|
-------------------------------|-------------------------------|
-------------------------------|-------------------------------|
--3----------------------------|--3----------------------------|
-----5-5-5-5-5--5-5-5-5-5--5-5-|-----5-5-5-5-5--5-5-5-5-5--5-5-|


  E  S S E  E  E  E  Q          E  S S S S E  S S S S E  S S  
---------------------------||--------------------------------|
--------------------------*||*-------------------------------|
---------------------------||--------------------------------|
--3---------5--5--5--3----*||*-------------------------------|
-----5-5-5-----------------||---3--5-5-5-5-5--5-5-5-5-5--5-5-|


  E  S S S S E  S S S S E  S S    E  S S S S E  S S S S E  S S  
-------------------------------|-------------------------------|
-------------------------------|-------------------------------|
-------------------------------|-------------------------------|
--3----------------------------|--3----------------------------|
-----5-5-5-5-5--5-5-5-5-5--5-5-|-----5-5-5-5-5--5-5-5-5-5--5-5-|


                                |--3--|     |--3--|            
  E  S S E  E  E  E  Q          E  E  E  E  E  E  E  E  E  E   
---------------------------||---------------------------------|
--------------------------*||*--------------------------------|
---------------------------||---------------------------------|
--3---------5--5--5--3----*||*--------------------------------|
-----5-5-5-----------------||---3--4--5-----3--4--5--6--6--6--|


  |--3--|     |--3--|              |--3--|     |--3--|            
  E  E  E  E  E  E  E  E  E  E     E  E  E  E  E  E  E  E  E  E   
--------------------------------|--------------------------------|
--------------------------------|--------------------------------|
--------------------------------|--------------------------------|
--------------------------------|--------------------------------|
--3--4--5-----3--4--5--6--6--6--|--3--4--5-----3--4--5--6--6--6--|


  Q.     Q.     Q     4x   E  S S E  E  S S E  S S E   
----------------------||------------------------------|
---------------------*||*-----------------------------|
----------------------||------------------------------|
---------------------*||*----------------------7-7-7--|
--6------5------3-----||---5--5-5-5--5--5-5-5---------|


  E  S S E  E  S S E  S S E     E  S S E  E  S S E  S S E   
-----------------------------|-----------------------------|
-----------------------------|-----------------------------|
-----------------------------|-----------------------------|
----------------------8-8-8--|----------------------7-7-7--|
--5--5-5-5--5--5-5-5---------|--5--5-5-5--5--5-5-5---------|


  S S E  S S E  S S E  Q       E  S S E  E  S S E  S S E   
----------------------------|-----------------------------|
----------------------------|-----------------------------|
----------------------------|-----------------------------|
--5-5-5----------------7----|----------------------7-7-7--|
---------8-8-8--7-7-7-------|--5--5-5-5--5--5-5-5---------|


  E  S S E  E  S S E  S S E     E  S S E  E  S S E  S S E   
-----------------------------|-----------------------------|
-----------------------------|-----------------------------|
-----------------------------|-----------------------------|
----------------------8-8-8--|----------------------7-7-7--|
--5--5-5-5--5--5-5-5---------|--5--5-5-5--5--5-5-5---------|


  S S E  S S E  S S E  Q     4x  E  E  H.              W                  
-----------------------------||---------------------|-------------------||
----------------------------*||---------------------|-------------------||
-----------------------------||---------------------|-------------------||
--5-5-5----------------7----*||--0------------------|-------------------||
---------8-8-8--7-7-7--------||---------------------|-------------------||




Duration Legend
---------------
W - whole
H - half
Q - quarter
E - 8th
S - 16th
T - 32nd
X - 64th
. - note dotted
|-n-|  - n-tuplets


Tablature Legend
----------------
L - tied note
x - dead note
g - grace note
(n) - ghost note
> - accentuded note
NH - natural harmonic
AH - artificial harmonic
TH - tapped harmonic
SH - semi harmonic
PH - pitch harmonic
h - hammer on
p - pull off
b - bend
br - bendRelease
pb - preBend
pbr - preBendRelease
brb - bendReleaseBend
\n/ - tremolo bar dip
\n - tremolo bar dive
-/n - tremolo bar Release up
/n\ - tremolo bar inverted dip
/n - tremolo bar return
-\n - tremolo bar Release down
S - shift slide
s - legato slide
/ -  slide into from below or out of upwards
\ -  slide into from above or out of downwards
~ - vibrato
W - wide vibrato
tr - trill
TP - tremolo picking
T - tapping
S - slap
P - pop
< - fade in
^ - brush up
v - brush down
Suggest correction
Creating personal tab
Creating personal tab
You can edit any tab online and save it as your Personal.

You can edit, replace or remove any tab part or add personal notes – all changes will be seen only by you.

Personal tabs can be accessed anytime from any device, even offline.
Learn more »
Give kudos to tab author, rate the tab!
1 2 3 4 5
comments
print report bad tab
guest
You may want to rate the tab now too:
select rating
Wanna post a correction for this tab? Suggest correction