Oops, an error
Loading. Please wait.

Trannsylvania Tab

284 views 1 this week
1 commentread comment
1 2 3 4 5
2 more votes to show rating
add to favorites
launch autoscroll
font size
0
reset
how to read this tab
guitar tuner
×
Best way to learn
"Trannsylvania"
Autoscroll
slow
fast
+/-
esc
set tempo
stop
Iced Earth
"Trannsylvia"
Horror Show
Tabbed by Kevin Cruz

/ \ SLIDE       A.H. Artificial Harmonic
* PALM MUTE       h  hammer-on
p Pull off        b  bend

Intro            4x                             4x
e-----------------------------------| |-----------------------------------|
B---------------------------------4-| |---------------------------------6-|
G-6---------6---------6---------4-4-| |-8---------8---------8---------6-6-|
D-6---------6---------6---------4-2-| |-8---------8---------8---------6-4-|
A-4-4-4-4-4-4-4-4-4-4-4-4-4-4-4-2---| |-6-6-6-6-6-6-6-6-6-6-6-6-6-6-6-4---|
E-----------------------------------| |-----------------------------------|
    * * * *   * * * *   * * * *           * * * *   * * * *   * * * * 

Riff 1
e-------------------------------------------------------|    
B-------------------------------------------------------|    
G-------------------------------------------------------|   
D-2--2-2-2-5p4--2--2-2-2-5p4--0--0-0-0---0-2--2-2-2-5p4-|  
A--------------------------------------0----------------|    
E-------------------------------------------------------|
  *  * * *      *  * * *      *  * * * * * *  * * *

e-------------------------------------------------------|
B-------------------------------------------------------|
G-------------------------------------------------------|
D-2--2-2-2-5p4--2--2-2-2-5p4--0--0-0-0---0-2--2-2-2-----|
A--------------------------------------0------------5p4-|
E-------------------------------------------------------|
  *  * * *      *  * * *      *  * * * * * *  * * *

Riff 2
e-------------------------------------------------------|
B-------------------------------------------------------|
G-------------------------------------------------------|
D-------------------------------------------------------|
A-2--2-2-2-5p4--2--2-2-2-5p4--0--0-0-0---0-2--2-2-2-5p4-|
E--------------------------------------0----------------|
  *  * * *      *  * * *      *  * * * * * *  * * * 

e-------------------------------------------------------|      |      |
B-------------------------------------------------------|Repeat|Repeat|
G-------------------------------------------------------|Riff 1|Riff 2|
D---------------------------------------------------5p4-| (2x) | (2x) |
A-2--2-2-2-5p4--2--2-2-2-5p4--0--0-0-0---0-2--2-2-2-----|      |      |
E--------------------------------------0----------------|      |      |
  *  * * *      *  * * *      *  * * * * * *  * * *

Bridge                           4x
e---------------------|-----------------------------|
B-\-15-12-11-11-11-11-|-----------------------------|
G-\-14-12-11-11-11-11-|-15-14-12-14-12-11-12-11-9-9-|
D---------------------|-----------------------------|
A---------------------|-----------------------------|
E---------------------|-----------------------------|

e---------------------|---------------------------------|              |
B-\-15-12-11-11-11-11-|---------------------------------|Reapeat first-|
G-\-14-12-11-11-11-11-|-15-14-12-14-12-11-12-11-9-9(A.h)|half of Intro |
D---------------------|---------------------------------|     4x       |
A---------------------|---------------------------------|              |
E---------------------|---------------------------------|              |


Riff 3 (before Solo)
e---------------------|
B---------------------|
G---------------------|Repeat till end of solo
D-8-88888888-8p7------|
A----------------8h10-|
E---------------------|
    ********

Solo
e-19p17p15----19p17p15----19p17p15------------|
B----------17----------17----------19b--19-17-|
G---------------------------------------------|
D---------------------------------------------|
A---------------------------------------------|
E---------------------------------------------|

e-19p17p15-19p17p15-19p17p15-19p17p15-19p17p15-19p17p15-19p17p15-19p17p15-|
B-------------------------------------------------------------------------|
G-------------------------------------------------------------------------|
D-------------------------------------------------------------------------|
A-------------------------------------------------------------------------|
E-------------------------------------------------------------------------|

e-22b-r-22-19-| 
B-------------|
G-------------|
D-------------|
A-------------|
E-------------|

i'll write the rest later!!!
Suggest correction
Give kudos to tab author, rate the tab!
1 2 3 4 5
comments
print report bad tab
1 comment total.
0 reply
antipop333 30 Jul 12, 2006 08:29 PM

it's by iron maiden your retard iced earth only covered it

guest
You may want to rate the tab now too:
select rating
Wanna post a correction for this tab? Suggest correction