Oops, an error
Loading. Please wait.

Wolf Bass Tab

version 1
version 1

Whole song

Interactive

627 views 9 this week
no commentswrite comment
1 2 3 4 5
please rate
add to favorites
launch autoscroll
font size
0
reset
guitar tuner
Tab Pro tools
  • play this tab
  • loop segment
  • change instrument
  • show fretboard
  • metronome
×
Best way to learn
"Wolf"
Autoscroll
slow
fast
+/-
esc
set tempo
stop
Contributor
Iced Earth-Wolf
Tabbed by DP 
any questions send to xprodigy01@gmail.com

Chorus x2
G|------------------------------------|------------------------------------||
D|------------------------------------|------------------------------------||
A|------------------33333333----------|---------------------------11111111-||
E|-000000000000000----------33333333--|-111111111111111-33333333------------||

Verse 2 x2
G|-----------------------------------|-------------------------------|
D|-----------------------------------|-------------------------------|
A|-------2-----0-2-3-----3-----0-2-3-|-----2-----0-2-------3-----3-2-|X2
E|-0-000---000-------000---000-------|-000---000-----1-111---111-----|
 
G|---------------------------------|---------------------------------||
D|---------------------------------|---------------------------------||
A|-------2-----2---------2-----2-3-|---------------------------------||X2
E|-3-333---333---3-1-111---111-----|-0-000-0-000-00--0-000-0-000-00--||

Chorus x2
G|------------------------------------|------------------------------------||
D|------------------------------------|------------------------------------||
A|------------------3333333-----------|---------------------------11111111-||
E|-0000000000000000----------3333333-|-1111111111111111-33333333-----------||

Riff 2 x2                                                          
G|-------------------------------|---------------------------------|
D|-------------------------------|---------------------------------|
A|-----8---6---5---8---7---5-7-8-|-------8---7---5---8---7---5-7-8-|X2
E|-0-0---0---0---0---0---0-------|-000-0---0---0---0---0---0-------|
 |
G|--------------------------||
D|--------------------------||
A|-------9---7---5----3---3-||
E|-000-0---0---0---0--------||

Riff 3                  
G|------------------------|-------------------||
D|------------------------|-------------------||
A|------------------3---3-|-----------3---5---||X4
E|-000-000-000-000--------|-3----5------------||

Verse 3 x2
G|-----------------------------------|-------------------------------|X2
D|-----------------------------------|-------------------------------|
A|-------2-----0-2-3-----2-----0-2-3-|-----2-----0-2-------3-----3-2-|
E|-0-000---000-------000---000-------|-000---000-----1-111---111-----|
 |
G|---------------------------------|---------------------------------||X2
D|---------------------------------|---------------------------------||
A|-------2-----2---------2-----2-3-|---------------------------------||
E|-3-333---333---3-1-111---111-----|-0-000-0-000-0/1-0-000-0-000-1-||

Chorus x4
G|------------------------------------|------------------------------------||
D|------------------------------------|------------------------------------||
A|------------------33333333----------|---------------------------11111111-||
E|-0000000000000000----------33333333-|-1111111111111111-33333333----------||

Outro 
G|------------------------------------|------------------------------------|
D|------------------------------------|------------------------------------|
A|------------------33333333----------|---------------------------11111111-|2X
E|-0000000000000000----------33333333-|-1111111111111111-33333333----------|
  
G|-------------------------------|---------------------------------|
D|-------------------------------|---------------------------------|
A|-----8---7---5---8---7---5-7-8-|-------8---7---5---8---7---5-7-8-| 2X
E|-0-0---0---0---0---0---0-------|-000-0---0---0---0---0---0-------|
 |

G|--------------------------||
D|--------------------------||
A|-------8---7---5----3---3-||
E|-000-0---0---0---0--------||

Ending
G|-------------------||
D|-------------------||
A|-----------3---5---||
E|-3----5------------||

I think the verse 2 has an error if someone notice what is please 
tell me!!!
comments
We did not receive enough feedback on this tab! Please rate:
print report bad tab
1 2 3 4 5
I want to post or [tab]
guest
You may want to rate the tab now too:
select rating
Please do not post tabs as comments. Select "correction" instead!