Oops, an error
Loading. Please wait.

Cynics And Critics Tab

version 1
version 1

Whole song

Interactive

2,483 views 6 this week
no commentswrite comment
1 2 3 4 5
accurate
x 4
add to favorites
launch autoscroll
font size
0
reset
how to read this tab
guitar tuner
Tab Pro tools
  • play this tab
  • loop segment
  • change instrument
  • show fretboard
  • metronome
×
Best way to learn
"Cynics And Critics"
Autoscroll
slow
fast
+/-
esc
set tempo
stop
Contributor
Tuning
C G C F A D
-------------------------------------------------------------------------------
                             CYNICS & CRITICS - Icon For Hire
-------------------------------------------------------------------------------
Tabbed by: Kiera
E-mail: evanescenceguitarist@yahoo.com

Tuning: Drop C

The 0's in ('s are something that I can't tell if they're actually
there or if it's just the drums doing it. But it's a very quick triplet.

Riff 1
   x2                                    1st repeat
D|-------------------------------------|------------------------------------|
A|-------------------------------------|------------------------------------|
F|-------------------------------------|------------------------------------|
C|-------------------------------------|------------------------------------|
G|-------------------------------------|------------------------------------|
C|-0---0---0-3-0---(00)0---0---0-6-5-3-|-0---0---0-3-0---(00)0---0---8-7-5-7|

  2nd repeat
D|-------------------------|
A|-------------------------|
F|-------------------------|
C|-------------------------|
G|-8--8--8--8--3----7--\---|
C|-8--8--8--8--3----7--\---|

Break------->

Riff 2
*-it sounds like one guitar is doing the semi pinch harmonic and the other's
not (to say there's two guitars at all).
D|--------------------------------------------------------------------------|
A|--------------------------------------------------------------------------|
F|--------------------------------------------------------------------------|
C|--------------------------------------------------------------------------|
G|-0--x------------7*--0--12\------------7*-7*--0--x------------7*-7*-------|
C|-0--x--0-7--3--5-----0--12\--0-7--3--5--------0--x--0-7--3--5-------------|


Chorus x2(just follow the vocals and drums for the rhythm)
D|-------------------------------------------------------------------------------|
A|-------------------------------------------------------------------------------|
F|-------------------------------------------------------------------------------|
C|-------------------------------------------------------------------------------|
G|-0--0-0--0-0--0--0--0--8--8-8--8-8--8--8--8--3-3-3-3-3-3-3-3-3-3-3-3-3-3-3-3---|
C|-0--0-0--0-0--0--0--0--8--8-8--8-8--8--8--8--3-3-3-3-3-3-3-3-3-3-3-3-3-3-3-3---|

D|-----------------------------------------|
A|-----------------------------------------|
F|-----------------------------------------|
C|-----------------------------------------|
G|-7-7-7-7-7-7-7-7-10-10-10-10-10-10-10-10-|
C|-7-7-7-7-7-7-7-7-10-10-10-10-10-10-10-10-|

Break---------------->

Riff 2 x2(slight variation)
D|-----------------------------------------------|
A|-----------------------------------------------|
F|-----------------------------------------------|
C|-----------------------------------------------|
G|-0--x------------7*--0--12\------------7*-7*---|
C|-0--x--0-7--3--5-----0--12\--0-7--3--5---------|

--------------------------------------------------------------
Chorus x2
--------------------------------------------------------------


Bridge
D|--------------------------------------------------------------------------|
A|--------------------------------------------------------------------------|
F|--------------------------------------------------------------------------|
C|--------------------------------------------------------------------------|
G|-------------------------------------------------------------------7\-----|
C|-0-000-0-----0-0-0-0-0-000-0-----000-000-0-000-0-----0-0-0-0-7-777-7\-----|
PM _______     _______________     _______________     _____________


Riff 1
>2nd repeat slight difference
 2nd repeat
D|-------------------------|
A|-------------------------|
F|-------------------------|
C|-------------------------|
G|-8--8--8--8--12---\------|
C|-8--8--8--8--12---\------|

--------------------------------------------------------------
Riff 1 again only hold out the notes
--------------------------------------------------------------


Chorus x2
slight change on 2nd repeat
D|---------------------------------------------------------------------------|
A|---------------------------------------------------------------------------|
F|---------------------------------------------------------------------------|
C|---------------------------------------------------------------------------|
G|-7-7-7-7-7-7-7-7-7-7-7-7-7-7-7-7-8--8--8--8--8--8--8--8--7-7-7-7-7-7-7-7-7\|
C|-7-7-7-7-7-7-7-7-7-7-7-7-7-7-7-7-8--8--8--8--8--8--8--8--7-7-7-7-7-7-7-7-7\|
PM                                 __________________________________________


Riff 1 with held out notes like before

END

Thanks for looking :)
considering how heavy this album's going to be with this song out there, I
imagine I'll be tabbing out the whole album.

************************************

| /   slide up
| \   slide down
| h   hammer-on
| p   pull-off
| ~   vibrato
| +   harmonic
| x   Mute note
| b   Bend
| pb  Pre-bend
| br  Bend release
| pbr Pre-bend release
| brb Bend release bend

************************************
comments
print report bad tab
I want to post or [tab]
guest
You may want to rate the tab now too:
select rating
Please do not post tabs as comments. Select "correction" instead!