Oops, an error
Loading. Please wait.

Get Well Tab

version 1
version 1

Whole song

Interactive

7,200 views 19 this week
no commentswrite comment
1 2 3 4 5
accurate
x 5
add to favorites
launch autoscroll
font size
0
reset
how to read this tab
guitar tuner
Tab Pro tools
  • play this tab
  • loop segment
  • change instrument
  • show fretboard
  • metronome
×
Best way to learn
"Get Well"
Autoscroll
slow
fast
+/-
esc
set tempo
stop
Contributor
Difficulty
Tuning
novice
C# G# C# F# A# D#
I noticed nobody had put up a tab for this awesome song, so I figured I would learn the 
song by ear and put it up for you guys! Enjojy!
T= 10th fret

Synth Intro
Verse 1

Eb|--------------------------------|
Bb|--------------------------------|
Gb|--------------------------------|
Db|-0-0--xxx-0--xx-8-8-xx-10-10-xx-|
Ab|-0-0--xxx-0--xx-8-8-xx-10-10-xx-|
Db|-0-0--xxx-0--xx-8-8-xx-10-10-xx-| X2

Pre-Chorus

Eb|------------------------------------|
Bb|------------------------------------|
Gb|------------------------------------|
Db|-0000000000000000-88888888-TTTTTTTT-|
Ab|-0000000000000000-88888888-TTTTTTTT-|
Db|-0000000000000000-88888888-TTTTTTTT-|
    xxxxxxxxxxxxxxxx xxxxxxxx xxxxxxxx

Eb|-------------------------------|
Bb|-------------------------------|
Gb|-------------------------------|
Db|-8888888888888888--------88/77-|
Ab|-8888888888888888--------------|
Db|-8888888888888888--------------|
    xxxxxxxxxxxxxxxx

Chorus

Eb|-------------------------------------|
Bb|-------------------------------------|
Gb|-------------------------------------|
Db|-00000000-88888888-33333333-TTTTTTTT-|
Ab|-00000000-88888888-33333333-TTTTTTTT-|
Db|-00000000-88888888-33333333-TTTTTTTT-| X2

Eb|------------------------------------------|
Bb|------------------------------------------|
Gb|------------------------------------------|
Db|-88888888-33333333-TTTTTTTT---------------|
Ab|-88888888-33333333-TTTTTTTT---------------|
Db|-88888888-33333333-TTTTTTTT-3/0-00-3/0-00-| X2

Verse 2

Eb|--------------------------------|
Bb|--------------------------------|
Gb|--------------------------------|
Db|-0-0---------xx-8-8-xx-10-10-xx-|
Ab|-0-0---------xx-8-8-xx-10-10-xx-|
Db|-0-0---------xx-8-8-xx-10-10-xx-|

Eb|--------------------------------|
Bb|--------------------------------|
Gb|--------------------------------|
Db|-0-0--xxx-0--xx-8-8-xx-10-10-xx-|
Ab|-0-0--xxx-0--xx-8-8-xx-10-10-xx-|
Db|-0-0--xxx-0--xx-8-8-xx-10-10-xx-|

Pre-chorus

Eb|------------------------------------|
Bb|------------------------------------|
Gb|------------------------------------|
Db|-0000000000000000-88888888-TTTTTTTT-|
Ab|-0000000000000000-88888888-TTTTTTTT-|
Db|-0000000000000000-88888888-TTTTTTTT-|
    xxxxxxxxxxxxxxxx xxxxxxxx xxxxxxxx

Eb|-------------------------------|
Bb|-------------------------------|
Gb|-------------------------------|
Db|-8888888888888888--------88/77-|
Ab|-8888888888888888--------------|
Db|-8888888888888888--------------|
    xxxxxxxxxxxxxxxx

Chorus

Eb|-------------------------------------|
Bb|-------------------------------------|
Gb|-------------------------------------|
Db|-00000000-88888888-33333333-TTTTTTTT-|
Ab|-00000000-88888888-33333333-TTTTTTTT-|
Db|-00000000-88888888-33333333-TTTTTTTT-| X2

Eb|------------------------------------------|
Bb|------------------------------------------|
Gb|------------------------------------------|
Db|-88888888-33333333-TTTTTTTT---------------|
Ab|-88888888-33333333-TTTTTTTT---------------|
Db|-88888888-33333333-TTTTTTTT-3/0-00-3/0-00-| X2

Bridge
(Come on dry your eyes)
Eb|---------------------------------|
Bb|---------------------------------|
Gb|---------------------------------|
Db|-0----00-3----33-T----TT---------|
Ab|-0----00-3----33-T----TT---------|
Db|-0----00-3----33-T----TT---------|
    x    x  x    x  x    xx

Eb|------------------|
Bb|------------------|
Gb|---T-T--T-T----TT-|
Db|---x-x--x-x----xx-|
Ab|---8-8--8-8----88-|
Db|-00----0-----00---| X2
    xx    x     xx

Pre-chorus 2

Eb|---------------------------------------------|
Bb|---------------------------------------------|
Gb|---------------------------------------------|
Db|---------------------------------------88/77-|
Ab|---------------------------------------------|
Db|---------------------------------------------|
I meant it when I said I wanna get well...

Chorus X2

Outro

Eb|--------------|
Bb|--------------|
Gb|--------------|
Db|--------------|
Ab|-3------------|
Db|--0-00-5/0-33-|

Have fun!
comments
print report bad tab
I want to post or [tab]
guest
You may want to rate the tab now too:
select rating
Please do not post tabs as comments. Select "correction" instead!