Oops, an error
Loading. Please wait.

Get Well Tab

version 2
version 2

Whole song

Interactive

2,515 views 6 this week
1 commentread comment
1 2 3 4 5
excellent!
x 3
add to favorites
launch autoscroll
font size
0
reset
how to read this tab
guitar tuner
Autoscroll
slow
fast
+/-
esc
set tempo
stop
Help us to improve Ultimate-Guitar.com Take our survey!
×
Contributor
Difficulty
novice
-------------------------------------------------------------------------------
                             Get Well - Icon For Hire
-------------------------------------------------------------------------------
Tabbed by:funkyrocker24
E-mail:freexfalling@hotmail.com

Tuning:D#, A#, F#, C#, G#, C# (down 1/2 step, dropped D)



Synth Intro/Break:

Lead
D#|--------------------------17-15----15-----------------18-17-15-------------|
A#|-----------15--15--15--15-------18-----15--15--15--15----------18----------|
F#|---------------------------------------------------------------------------|
C#|-12~-12~-------------------------------------------------------------------|
G#|---------------------------------------------------------------------------|
C#|---------------------------------------------------------------------------|

D#|--------------------------17-15----15--------------------------------------|
A#|-----------15--15--15--15-------18-----15--15--15--15-17-18-17-15----------|
F#|---------------------------------------------------------------------------|
C#|-12~-12~-------------------------------------------------------------------|
G#|---------------------------------------------------------------------------|
C#|---------------------------------------------------------------------------|

Bass (palm muted)

F#|--------3(x8)------------3(x8)---------------------------------------------|
C#|---------------------------------------------------------------------------|
G#|-5(x16)------3(x8)-5(x16)-----3(x8)----------------------------------------|
C#|---------------------------------------------------------------------------|

Verse:

Guitar
'We throw tantrums at parties...'
D#|---------------------------------------------------------------------------|
A#|---------------------------|-----------------------------------------------|
F#|------------3--3-3--5--5-5-|-x2--------------------------------------------|
C#|-0-0---0-0--3--3-3--5--5-5-|-----------------------------------------------|
G#|-0-0---0-0--1--1-1--3--3-3-|-----------------------------------------------|
C#|-0-0---0-0-----------------------------------------------------------------|

'Don't tell the others but its...'
(all palm muted)
D#|---------------------------------------------------------------------------|
A#|---------------------------------------------------------------------------|
F#|-------------------------------------15-15-14-14---------------------------|
C#|--------3(x8)-5(x8)-3(x16)-2-----------------------------------------------|
G#|-0(x16)-1-----3-----1------0---------13-13-12-12---------------------------|
C#|-0-------------------------------------------------------------------------|

Little quiet background melody bit
D#|-----5---6---5-------5---6---5---3-----------------------------------------|
A#|-3-3---3---3---3-3-3---3---3---3-------------------------------------------|
F#|-------------------------------------15-15-14-14---------------------------|
C#|---------------------------------------------------------------------------|
G#|-------------------------------------13-13-12-12---------------------------|
C#|---------------------------------------------------------------------------|

Chorus:

Rhythm
D#|---------------------------------------------------------------------------|
A#|--------------------------|------------------------------------------------|
F#|--------------------------|------------------------------------------------|
C#|-0-----8-----3-----10-----|-x2---------------------------------------------|
G#|-0(x8)-8(x8)-3(x8)-10(x8)-|------------------------------------------------|
C#|-0-----8-----3-----10------------------------------------------------------|

D#|---------------------------------------------------------------------------|
A#|---------------------------------------------------------------------------|
F#|---------------------------------------------------------------------------|
C#|-8-----3-----10------------------------8-----3-----10----------------------|
G#|-8(x4)-3(x4)-10(x4)--------------------8(x4)-3(x4)-10(x4)----------1-------|
C#|-8-----3-----10-----10-0-0-0-10-0-0-0--8-----3-----10-----10-0-0-0---3-3-3-|

Lead
D#|---------------------------------------------------------------------------|
A#|---------------------------------------------------------------------------|
F#|-12-----14-----15-----14-----12-----12-----14-----10-----9-----------------|
C#|---(x8)---(x8)---(x6)---(x2)---(x8)---(x8)---(x8)---(x8)--(x8)-------------|
G#|-10-----12-----13-----12-----10-----10-----12------8-----7-----------------|
C#|---------------------------------------------------------------------------|

D#|---------------------------------------------------------------------------|
A#|---------------------------------------------------------------------------|
F#|-12-----10-----12-----------------------12-----10--------------------------|
C#|---(x4)---(x4)---(x4)---------------------(x4)---(x4)----------------------|
G#|-10------8-----10-----------------------10------8--------------1-----------|
C#|----------------------10-0-0-0-10-0-0-0---------------10-0-0-0---3-3-3-----|

Interlude:

Bass (with fuzzy electronic effects)
F#|---------------------------------------------------------------------------|
C#|-0-0-0-0-0-0-0-0-0-0-0-0-0-0-10-12-----------------------------7-----------|
G#|-----------------------------------8-8-8-8-8-8-8-8-8-8-8-8-8-8---8---------|
C#|---------------------------------------------------------------------------|


F#|-5-5-5-5-5-5-5-5-5-5-5-5-5-5-7-5-------------------------------------9-10--|
C#|---------------------------------8-8-8-8-8-8-------10-10-10-10-10-10-------|
G#|---------------------------------------------10-10-------------------------|
C#|---------------------------------------------------------------------------|

Guitar (palm muted for badassery)
D#|---------------------------------------------------------------------------|
A#|---------------------------------------------------------------------------|
F#|---------------------------------------------------------------------------|
C#|-0---0-0----3-3-3---3-3----10---10-10----8-8-8---7-7-7---------------------|
G#|-0---0-0----3-3-3---3-3----10---10-10----8-8-8---7-7-7---------------------|
C#|-0---0-0----3-3-3---3-3----10---10-10----8-8-8---7-7-7---------------------|

D#|---------------------------------------------------------------------------|
A#|--------------------------------|------------------------------------------|
F#|-----10--10~---10--10~----10-10-|-x2---------------------------------------|
C#|--------------------------------|------------------------------------------|
G#|-0-0-8----8~-0-8----8~-0-0-8--8-|------------------------------------------|
C#|-0-0---------0---------0-0-------------------------------------------------|

Finish on:

D#|------------------------------------|
A#|------------------------------------|
F#|------------------------------------|
C#|------------------------------------|
G#|----------------------------1-------|
C#|-10-0-0-0-10-0-0-0-10-0-0-0---3-3-3-|


Order:

synth intro
verse
chorus
synth break
verse
chorus
interlude
synth break
chorus

************************************
comments
We did not receive enough feedback on this tab! Please rate:
print report bad tab
1 2 3 4 5
1 comment total.
0 reply
TFKfan365 94 wrote on March 28 2014, 12:30 am

pre chorus is a little off, but other than that, a good tab

I want to post or [tab]
guest
You may want to rate the tab now too:
select rating
Please do not post tabs as comments. Select "correction" instead!